  0
SECTION
  2
HEADER
  9
$ACADVER
  1
AC1015
  9
$ACADMAINTVER
 70
     6
  9
$DWGCODEPAGE
  3
ANSI_1254
  9
$INSBASE
 10
0.0
 20
0.0
 30
0.0
  9
$EXTMIN
 10
0.0
 20
0.0
 30
0.0
  9
$EXTMAX
 10
279.4
 20
215.9
 30
0.0
  9
$LIMMIN
 10
0.0
 20
0.0
  9
$LIMMAX
 10
279.4
 20
215.9
  9
$ORTHOMODE
 70
     0
  9
$REGENMODE
 70
     1
  9
$FILLMODE
 70
     1
  9
$QTEXTMODE
 70
     0
  9
$MIRRTEXT
 70
     1
  9
$LTSCALE
 40
1.0
  9
$ATTMODE
 70
     1
  9
$TEXTSIZE
 40
3.5
  9
$TRACEWID
 40
1.0
  9
$TEXTSTYLE
  7
Standard
  9
$CLAYER
  8
0
  9
$CELTYPE
  6
ByLayer
  9
$CECOLOR
 62
   256
  9
$CELTSCALE
 40
1.0
  9
$DISPSILH
 70
     0
  9
$DIMSCALE
 40
1.0
  9
$DIMASZ
 40
3.5
  9
$DIMEXO
 40
1.0
  9
$DIMDLI
 40
3.75
  9
$DIMRND
 40
0.0
  9
$DIMDLE
 40
0.0
  9
$DIMEXE
 40
1.0
  9
$DIMTP
 40
0.0
  9
$DIMTM
 40
0.0
  9
$DIMTXT
 40
3.5
  9
$DIMCEN
 40
2.5
  9
$DIMTSZ
 40
0.0
  9
$DIMTOL
 70
     0
  9
$DIMLIM
 70
     0
  9
$DIMTIH
 70
     1
  9
$DIMTOH
 70
     1
  9
$DIMSE1
 70
     0
  9
$DIMSE2
 70
     0
  9
$DIMTAD
 70
     1
  9
$DIMZIN
 70
     0
  9
$DIMBLK
  1

  9
$DIMASO
 70
     1
  9
$DIMSHO
 70
     1
  9
$DIMPOST
  1

  9
$DIMAPOST
  1

  9
$DIMALT
 70
     0
  9
$DIMALTD
 70
     3
  9
$DIMALTF
 40
0.0393700787
  9
$DIMLFAC
 40
1.0
  9
$DIMTOFL
 70
     1
  9
$DIMTVP
 40
0.0
  9
$DIMTIX
 70
     0
  9
$DIMSOXD
 70
     0
  9
$DIMSAH
 70
     0
  9
$DIMBLK1
  1

  9
$DIMBLK2
  1

  9
$DIMSTYLE
  2
ISO-25
  9
$DIMCLRD
 70
     0
  9
$DIMCLRE
 70
     0
  9
$DIMCLRT
 70
     0
  9
$DIMTFAC
 40
1.0
  9
$DIMGAP
 40
1.524
  9
$DIMJUST
 70
     0
  9
$DIMSD1
 70
     0
  9
$DIMSD2
 70
     0
  9
$DIMTOLJ
 70
     0
  9
$DIMTZIN
 70
     0
  9
$DIMALTZ
 70
     0
  9
$DIMALTTZ
 70
     0
  9
$DIMUPT
 70
     0
  9
$DIMDEC
 70
     2
  9
$DIMTDEC
 70
     2
  9
$DIMALTU
 70
     2
  9
$DIMALTTD
 70
     3
  9
$DIMTXSTY
  7
Standard
  9
$DIMAUNIT
 70
     0
  9
$DIMADEC
 70
     2
  9
$DIMALTRND
 40
0.0
  9
$DIMAZIN
 70
     0
  9
$DIMDSEP
 70
    44
  9
$DIMATFIT
 70
     3
  9
$DIMFRAC
 70
     0
  9
$DIMLDRBLK
  1

  9
$DIMLUNIT
 70
     2
  9
$DIMLWD
 70
    -2
  9
$DIMLWE
 70
    -2
  9
$DIMTMOVE
 70
     0
  9
$LUNITS
 70
     2
  9
$LUPREC
 70
     2
  9
$SKETCHINC
 40
1.0
  9
$FILLETRAD
 40
10.0
  9
$AUNITS
 70
     0
  9
$AUPREC
 70
     2
  9
$MENU
  1
.
  9
$ELEVATION
 40
0.0
  9
$PELEVATION
 40
0.0
  9
$THICKNESS
 40
0.0
  9
$LIMCHECK
 70
     0
  9
$CHAMFERA
 40
0.0
  9
$CHAMFERB
 40
0.0
  9
$CHAMFERC
 40
0.0
  9
$CHAMFERD
 40
0.0
  9
$SKPOLY
 70
     0
  9
$TDCREATE
 40
2459935.710430856
  9
$TDUCREATE
 40
2459935.585430856
  9
$TDUPDATE
 40
2459935.71043103
  9
$TDUUPDATE
 40
2459935.58543103
  9
$TDINDWG
 40
0.0000000116
  9
$TDUSRTIMER
 40
0.0000000116
  9
$USRTIMER
 70
     1
  9
$ANGBASE
 50
0.0
  9
$ANGDIR
 70
     0
  9
$PDMODE
 70
     0
  9
$PDSIZE
 40
-1.0
  9
$PLINEWID
 40
0.0
  9
$SPLFRAME
 70
     0
  9
$SPLINETYPE
 70
     6
  9
$SPLINESEGS
 70
     8
  9
$HANDSEED
  5
110
  9
$SURFTAB1
 70
     6
  9
$SURFTAB2
 70
     6
  9
$SURFTYPE
 70
     6
  9
$SURFU
 70
     6
  9
$SURFV
 70
     6
  9
$UCSBASE
  2

  9
$UCSNAME
  2

  9
$UCSORG
 10
0.0
 20
0.0
 30
0.0
  9
$UCSXDIR
 10
1.0
 20
0.0
 30
0.0
  9
$UCSYDIR
 10
0.0
 20
1.0
 30
0.0
  9
$UCSORTHOREF
  2

  9
$UCSORTHOVIEW
 70
     0
  9
$UCSORGTOP
 10
0.0
 20
0.0
 30
0.0
  9
$UCSORGBOTTOM
 10
0.0
 20
0.0
 30
0.0
  9
$UCSORGLEFT
 10
0.0
 20
0.0
 30
0.0
  9
$UCSORGRIGHT
 10
0.0
 20
0.0
 30
0.0
  9
$UCSORGFRONT
 10
0.0
 20
0.0
 30
0.0
  9
$UCSORGBACK
 10
0.0
 20
0.0
 30
0.0
  9
$PUCSBASE
  2

  9
$PUCSNAME
  2

  9
$PUCSORG
 10
0.0
 20
0.0
 30
0.0
  9
$PUCSXDIR
 10
1.0
 20
0.0
 30
0.0
  9
$PUCSYDIR
 10
0.0
 20
1.0
 30
0.0
  9
$PUCSORTHOREF
  2

  9
$PUCSORTHOVIEW
 70
     0
  9
$PUCSORGTOP
 10
0.0
 20
0.0
 30
0.0
  9
$PUCSORGBOTTOM
 10
0.0
 20
0.0
 30
0.0
  9
$PUCSORGLEFT
 10
0.0
 20
0.0
 30
0.0
  9
$PUCSORGRIGHT
 10
0.0
 20
0.0
 30
0.0
  9
$PUCSORGFRONT
 10
0.0
 20
0.0
 30
0.0
  9
$PUCSORGBACK
 10
0.0
 20
0.0
 30
0.0
  9
$USERI1
 70
     0
  9
$USERI2
 70
     0
  9
$USERI3
 70
     0
  9
$USERI4
 70
     0
  9
$USERI5
 70
     0
  9
$USERR1
 40
0.0
  9
$USERR2
 40
0.0
  9
$USERR3
 40
0.0
  9
$USERR4
 40
0.0
  9
$USERR5
 40
0.0
  9
$WORLDVIEW
 70
     1
  9
$SHADEDGE
 70
     3
  9
$SHADEDIF
 70
    70
  9
$TILEMODE
 70
     1
  9
$MAXACTVP
 70
    64
  9
$PINSBASE
 10
0.0
 20
0.0
 30
0.0
  9
$PLIMCHECK
 70
     0
  9
$PEXTMIN
 10
1.0000000000E+20
 20
1.0000000000E+20
 30
1.0000000000E+20
  9
$PEXTMAX
 10
-1.0000000000E+20
 20
-1.0000000000E+20
 30
-1.0000000000E+20
  9
$PLIMMIN
 10
0.0
 20
0.0
  9
$PLIMMAX
 10
420.0
 20
297.0
  9
$UNITMODE
 70
     0
  9
$VISRETAIN
 70
     1
  9
$PLINEGEN
 70
     0
  9
$PSLTSCALE
 70
     1
  9
$TREEDEPTH
 70
  3020
  9
$CMLSTYLE
  2
Standard
  9
$CMLJUST
 70
     0
  9
$CMLSCALE
 40
20.0
  9
$PROXYGRAPHICS
 70
     1
  9
$MEASUREMENT
 70
     1
  9
$CELWEIGHT
370
    -1
  9
$ENDCAPS
280
     0
  9
$JOINSTYLE
280
     0
  9
$LWDISPLAY
290
     1
  9
$INSUNITS
 70
     4
  9
$HYPERLINKBASE
  1

  9
$STYLESHEET
  1

  9
$XEDIT
290
     1
  9
$CEPSNTYPE
380
     0
  9
$PSTYLEMODE
290
     1
  9
$FINGERPRINTGUID
  2
{b5d66903-b916-4ccb-b43a-8f530066ebcf}
  9
$VERSIONGUID
  2
{FAEB1C32-E019-11D5-929B-00C0DF256EC4}
  9
$EXTNAMES
290
     1
  9
$PSVPSCALE
 40
0.0
  9
$OLESTARTUP
290
     0
  0
ENDSEC
  0
SECTION
  2
CLASSES
  0
CLASS
  1
ACDBDICTIONARYWDFLT
  2
AcDbDictionaryWithDefault
  3
ObjectDBX Classes
 90
        0
280
     0
281
     0
  0
CLASS
  1
VISUALSTYLE
  2
AcDbVisualStyle
  3
ObjectDBX Classes
 90
     4095
280
     0
281
     0
  0
CLASS
  1
MATERIAL
  2
AcDbMaterial
  3
ObjectDBX Classes
 90
     1153
280
     0
281
     0
  0
CLASS
  1
SCALE
  2
AcDbScale
  3
ObjectDBX Classes
 90
     1153
280
     0
281
     0
  0
CLASS
  1
TABLESTYLE
  2
AcDbTableStyle
  3
ObjectDBX Classes
 90
     4095
280
     0
281
     0
  0
CLASS
  1
MLEADERSTYLE
  2
AcDbMLeaderStyle
  3
ACDB_MLEADERSTYLE_CLASS
 90
     4095
280
     0
281
     0
  0
CLASS
  1
SUN
  2
AcDbSun
  3
SCENEOE
 90
     1153
280
     0
281
     0
  0
CLASS
  1
ACDBPLACEHOLDER
  2
AcDbPlaceHolder
  3
ObjectDBX Classes
 90
        0
280
     0
281
     0
  0
CLASS
  1
LAYOUT
  2
AcDbLayout
  3
ObjectDBX Classes
 90
        0
280
     0
281
     0
  0
ENDSEC
  0
SECTION
  2
TABLES
  0
TABLE
  2
VPORT
  5
8
330
0
100
AcDbSymbolTable
 70
     1
  0
VPORT
  5
29
330
8
100
AcDbSymbolTableRecord
100
AcDbViewportTableRecord
  2
*Active
 70
     0
 10
0.0
 20
0.0
 11
1.0
 21
1.0
 12
139.7
 22
107.95
 13
0.0
 23
0.0
 14
10.0
 24
10.0
 15
10.0
 25
10.0
 16
0.0
 26
0.0
 36
1.0
 17
0.0
 27
0.0
 37
0.0
 40
215.9
 41
1.2941176471
 42
50.0
 43
0.0
 44
0.0
 50
0.0
 51
0.0
 71
     0
 72
  2000
 73
     1
 74
     3
 75
     0
 76
     0
 77
     0
 78
     0
281
     0
 65
     1
110
0.0
120
0.0
130
0.0
111
1.0
121
0.0
131
0.0
112
0.0
122
1.0
132
0.0
 79
     0
146
0.0
  0
ENDTAB
  0
TABLE
  2
LTYPE
  5
5
330
0
100
AcDbSymbolTable
 70
     6
  0
LTYPE
  5
14
330
5
100
AcDbSymbolTableRecord
100
AcDbLinetypeTableRecord
  2
ByBlock
 70
     0
  3

 72
    65
 73
     0
 40
0.0
  0
LTYPE
  5
15
330
5
100
AcDbSymbolTableRecord
100
AcDbLinetypeTableRecord
  2
ByLayer
 70
     0
  3

 72
    65
 73
     0
 40
0.0
  0
LTYPE
  5
16
330
5
100
AcDbSymbolTableRecord
100
AcDbLinetypeTableRecord
  2
Continuous
 70
     0
  3
Solid line
 72
    65
 73
     0
 40
0.0
  0
LTYPE
  5
6E
330
5
100
AcDbSymbolTableRecord
100
AcDbLinetypeTableRecord
  2
HIDDEN
 70
     0
  3
Hidden __ __ __ __ __ __ __ __ __ __ __ __ __ __
 72
    65
 73
     2
 40
1.905
 49
1.27
 74
     0
 49
-0.635
 74
     0
  0
LTYPE
  5
6F
330
5
100
AcDbSymbolTableRecord
100
AcDbLinetypeTableRecord
  2
PHANTOM
 70
     0
  3
Phantom ______  __  __  ______  __  __  ______
 72
    65
 73
     6
 40
12.7
 49
6.35
 74
     0
 49
-1.27
 74
     0
 49
1.27
 74
     0
 49
-1.27
 74
     0
 49
1.27
 74
     0
 49
-1.27
 74
     0
  0
LTYPE
  5
70
330
5
100
AcDbSymbolTableRecord
100
AcDbLinetypeTableRecord
  2
CENTER
 70
     0
  3
Center ____ _ ____ _ ____ _ ____ _ ____ _ ____
 72
    65
 73
     4
 40
10.16
 49
6.35
 74
     0
 49
-1.27
 74
     0
 49
1.27
 74
     0
 49
-1.27
 74
     0
  0
LTYPE
  5
71
330
5
100
AcDbSymbolTableRecord
100
AcDbLinetypeTableRecord
  2
CENTERX2
 70
     0
  3
Center (2x) ________  __  ________  __  _____
 72
    65
 73
     4
 40
20.32
 49
12.7
 74
     0
 49
-2.54
 74
     0
 49
2.54
 74
     0
 49
-2.54
 74
     0
  0
LTYPE
  5
72
330
5
100
AcDbSymbolTableRecord
100
AcDbLinetypeTableRecord
  2
DOT2
 70
     0
  3
Dot (.5x) ........................................
 72
    65
 73
     2
 40
0.635
 49
0.0
 74
     0
 49
-0.635
 74
     0
  0
ENDTAB
  0
TABLE
  2
LAYER
  5
2
330
0
100
AcDbSymbolTable
 70
    17
  0
LAYER
  5
10
330
2
100
AcDbSymbolTableRecord
100
AcDbLayerTableRecord
  2
0
 70
     0
 62
     7
  6
Continuous
370
    -3
390
F
  0
LAYER
  5
73
330
2
100
AcDbSymbolTableRecord
100
AcDbLayerTableRecord
  2
FORMAT
 70
     0
 62
     7
  6
Continuous
370
    -3
390
F
  0
LAYER
  5
74
330
2
100
AcDbSymbolTableRecord
100
AcDbLayerTableRecord
  2
YARDIMCI_GEOMETRI
 70
     0
 62
    -6
  6
Continuous
290
     0
370
    -3
390
F
  0
LAYER
  5
75
330
2
100
AcDbSymbolTableRecord
100
AcDbLayerTableRecord
  2
SAYFA_CERCEVESI
 70
     0
 62
     7
  6
Continuous
370
    25
390
F
  0
LAYER
  5
76
330
2
100
AcDbSymbolTableRecord
100
AcDbLayerTableRecord
  2
ANTET
 70
     0
 62
     7
  6
Continuous
370
    -3
390
F
  0
LAYER
  5
77
330
2
100
AcDbSymbolTableRecord
100
AcDbLayerTableRecord
  2
OLCU
 70
     0
 62
   150
  6
Continuous
370
    -3
390
F
  0
LAYER
  5
78
330
2
100
AcDbSymbolTableRecord
100
AcDbLayerTableRecord
  2
METIN
 70
     0
 62
    96
  6
Continuous
370
    -3
390
F
  0
LAYER
  5
79
330
2
100
AcDbSymbolTableRecord
100
AcDbLayerTableRecord
  2
BALON
 70
     0
 62
     5
  6
Continuous
370
    -3
390
F
  0
LAYER
  5
7A
330
2
100
AcDbSymbolTableRecord
100
AcDbLayerTableRecord
  2
VURGU
 70
     0
 62
     7
  6
Continuous
370
    -3
390
F
  0
LAYER
  5
7B
330
2
100
AcDbSymbolTableRecord
100
AcDbLayerTableRecord
  2
SILIK
 70
     0
 62
     7
  6
Continuous
370
    -3
390
F
  0
LAYER
  5
7C
330
2
100
AcDbSymbolTableRecord
100
AcDbLayerTableRecord
  2
MODEL
 70
     0
 62
     7
  6
Continuous
370
    -3
390
F
  0
LAYER
  5
7D
330
2
100
AcDbSymbolTableRecord
100
AcDbLayerTableRecord
  2
DETAYLANDıRMA
 70
     0
 62
   190
  6
Continuous
370
    -3
390
F
  0
LAYER
  5
7E
330
2
100
AcDbSymbolTableRecord
100
AcDbLayerTableRecord
  2
TOLERANS
 70
     0
 62
   230
  6
Continuous
370
    -3
390
F
  0
LAYER
  5
7F
330
2
100
AcDbSymbolTableRecord
100
AcDbLayerTableRecord
  2
MERKEZ_CIZGILERI
 70
     0
 62
    30
  6
Continuous
370
    -3
390
F
  0
LAYER
  5
80
330
2
100
AcDbSymbolTableRecord
100
AcDbLayerTableRecord
  2
KESIT-DETAY_CIZGILERI
 70
     0
 62
     7
  6
Continuous
370
    -3
390
F
  0
LAYER
  5
81
330
2
100
AcDbSymbolTableRecord
100
AcDbLayerTableRecord
  2
\U+041E\U+0421\U+0415\U+0412\U+042B\U+0415
 70
     0
 62
     7
  6
Continuous
370
    -3
390
F
  0
LAYER
  5
82
330
2
100
AcDbSymbolTableRecord
100
AcDbLayerTableRecord
  2
\U+0412\U+041E\U+0414\U+042F\U+041D\U+042B\U+0415_\U+0417\U+041D\U+0410\U+041A\U+0418
 70
     0
 62
    11
  6
Continuous
370
    -3
390
F
  0
ENDTAB
  0
TABLE
  2
STYLE
  5
3
330
0
100
AcDbSymbolTable
 70
     1
  0
STYLE
  5
11
330
3
100
AcDbSymbolTableRecord
100
AcDbTextStyleTableRecord
  2
Standard
 70
     0
 40
0.0
 41
1.0
 50
0.0
 71
     0
 42
3.5
  3
txt
  4

  0
ENDTAB
  0
TABLE
  2
VIEW
  5
6
330
0
100
AcDbSymbolTable
 70
     0
  0
ENDTAB
  0
TABLE
  2
UCS
  5
7
330
0
100
AcDbSymbolTable
 70
     0
  0
ENDTAB
  0
TABLE
  2
APPID
  5
9
330
0
100
AcDbSymbolTable
 70
     1
  0
APPID
  5
12
330
9
100
AcDbSymbolTableRecord
100
AcDbRegAppTableRecord
  2
ACAD
 70
     0
  0
ENDTAB
  0
TABLE
  2
DIMSTYLE
  5
A
330
0
100
AcDbSymbolTable
 70
     1
100
AcDbDimStyleTable
  0
DIMSTYLE
105
27
330
A
100
AcDbSymbolTableRecord
100
AcDbDimStyleTableRecord
  2
ISO-25
 70
     0
 41
2.5
 42
0.625
 43
3.75
 44
1.25
 73
     0
 74
     0
 77
     1
 78
     8
140
2.5
141
2.5
143
0.0393700787
147
0.625
171
     3
172
     1
178
     0
271
     2
272
     2
274
     3
278
    44
283
     0
284
     8
340
11
  0
ENDTAB
  0
TABLE
  2
BLOCK_RECORD
  5
1
330
0
100
AcDbSymbolTable
 70
     4
  0
BLOCK_RECORD
  5
1F
330
1
100
AcDbSymbolTableRecord
100
AcDbBlockTableRecord
  2
*Model_Space
340
22
  0
BLOCK_RECORD
  5
1B
330
1
100
AcDbSymbolTableRecord
100
AcDbBlockTableRecord
  2
*Paper_Space
340
1E
  0
BLOCK_RECORD
  5
23
330
1
100
AcDbSymbolTableRecord
100
AcDbBlockTableRecord
  2
*Paper_Space0
340
26
  0
BLOCK_RECORD
  5
8C
330
1
100
AcDbSymbolTableRecord
100
AcDbBlockTableRecord
  2
SW_CENTERMARKSYMBOL_0
340
0
102
{BLKREFS
331
97
102
}
  0
BLOCK_RECORD
  5
DE
330
1
100
AcDbSymbolTableRecord
100
AcDbBlockTableRecord
  2
SW_CENTERMARKSYMBOL_1
340
0
102
{BLKREFS
331
E9
102
}
  0
BLOCK_RECORD
  5
EA
330
1
100
AcDbSymbolTableRecord
100
AcDbBlockTableRecord
  2
SW_CENTERMARKSYMBOL_2
340
0
102
{BLKREFS
331
F5
102
}
  0
ENDTAB
  0
ENDSEC
  0
SECTION
  2
BLOCKS
  0
BLOCK
  5
20
330
1F
100
AcDbEntity
  8
0
100
AcDbBlockBegin
  2
*Model_Space
 70
     0
 10
0.0
 20
0.0
 30
0.0
  3
*Model_Space
  1

  0
ENDBLK
  5
21
330
1F
100
AcDbEntity
  8
0
100
AcDbBlockEnd
  0
BLOCK
  5
1C
330
1B
100
AcDbEntity
 67
     1
  8
0
100
AcDbBlockBegin
  2
*Paper_Space
 70
     0
 10
0.0
 20
0.0
 30
0.0
  3
*Paper_Space
  1

  0
ENDBLK
  5
1D
330
1B
100
AcDbEntity
 67
     1
  8
0
100
AcDbBlockEnd
  0
BLOCK
  5
24
330
23
100
AcDbEntity
  8
0
100
AcDbBlockBegin
  2
*Paper_Space0
 70
     0
 10
0.0
 20
0.0
 30
0.0
  3
*Paper_Space0
  1

  0
ENDBLK
  5
25
330
23
100
AcDbEntity
  8
0
100
AcDbBlockEnd
  0
BLOCK
  5
8D
330
8C
100
AcDbEntity
  8
0
100
AcDbBlockBegin
  2
SW_CENTERMARKSYMBOL_0
 70
     0
 10
0.0
 20
0.0
 30
0.0
  3
SW_CENTERMARKSYMBOL_0
  1

  0
LINE
  5
8F
330
8C
100
AcDbEntity
  8
FORMAT
 62
     0
100
AcDbLine
 10
0.0
 20
0.0
 30
0.0
 11
0.0
 21
2.5
 31
0.0
  0
LINE
  5
90
330
8C
100
AcDbEntity
  8
FORMAT
 62
     0
100
AcDbLine
 10
0.0
 20
0.0
 30
0.0
 11
-2.5
 21
0.0
 31
0.0
  0
LINE
  5
91
330
8C
100
AcDbEntity
  8
FORMAT
 62
     0
100
AcDbLine
 10
0.0
 20
0.0
 30
0.0
 11
0.0
 21
-2.5
 31
0.0
  0
LINE
  5
92
330
8C
100
AcDbEntity
  8
FORMAT
 62
     0
100
AcDbLine
 10
0.0
 20
0.0
 30
0.0
 11
2.5
 21
0.0
 31
0.0
  0
LINE
  5
93
330
8C
100
AcDbEntity
  8
FORMAT
 62
     0
100
AcDbLine
 10
0.0
 20
5.0
 30
0.0
 11
0.0
 21
160.7
 31
0.0
  0
LINE
  5
94
330
8C
100
AcDbEntity
  8
FORMAT
 62
     0
100
AcDbLine
 10
-5.0
 20
0.0
 30
0.0
 11
-160.7
 21
0.0
 31
0.0
  0
LINE
  5
95
330
8C
100
AcDbEntity
  8
FORMAT
 62
     0
100
AcDbLine
 10
0.0
 20
-5.0
 30
0.0
 11
0.0
 21
-160.7
 31
0.0
  0
LINE
  5
96
330
8C
100
AcDbEntity
  8
FORMAT
 62
     0
100
AcDbLine
 10
5.0
 20
0.0
 30
0.0
 11
160.7
 21
0.0
 31
0.0
  0
ENDBLK
  5
8E
330
8C
100
AcDbEntity
  8
0
100
AcDbBlockEnd
  0
BLOCK
  5
DF
330
DE
100
AcDbEntity
  8
0
100
AcDbBlockBegin
  2
SW_CENTERMARKSYMBOL_1
 70
     0
 10
0.0
 20
0.0
 30
0.0
  3
SW_CENTERMARKSYMBOL_1
  1

  0
LINE
  5
E1
330
DE
100
AcDbEntity
  8
FORMAT
 62
     0
100
AcDbLine
 10
0.0
 20
0.0
 30
0.0
 11
0.0
 21
2.5
 31
0.0
  0
LINE
  5
E2
330
DE
100
AcDbEntity
  8
FORMAT
 62
     0
100
AcDbLine
 10
0.0
 20
0.0
 30
0.0
 11
-2.5
 21
0.0
 31
0.0
  0
LINE
  5
E3
330
DE
100
AcDbEntity
  8
FORMAT
 62
     0
100
AcDbLine
 10
0.0
 20
0.0
 30
0.0
 11
0.0
 21
-2.5
 31
0.0
  0
LINE
  5
E4
330
DE
100
AcDbEntity
  8
FORMAT
 62
     0
100
AcDbLine
 10
0.0
 20
0.0
 30
0.0
 11
2.5
 21
0.0
 31
0.0
  0
LINE
  5
E5
330
DE
100
AcDbEntity
  8
FORMAT
 62
     0
100
AcDbLine
 10
0.0
 20
5.0
 30
0.0
 11
0.0
 21
9.5
 31
0.0
  0
LINE
  5
E6
330
DE
100
AcDbEntity
  8
FORMAT
 62
     0
100
AcDbLine
 10
-5.0
 20
0.0
 30
0.0
 11
-9.5
 21
0.0
 31
0.0
  0
LINE
  5
E7
330
DE
100
AcDbEntity
  8
FORMAT
 62
     0
100
AcDbLine
 10
0.0
 20
-5.0
 30
0.0
 11
0.0
 21
-9.5
 31
0.0
  0
LINE
  5
E8
330
DE
100
AcDbEntity
  8
FORMAT
 62
     0
100
AcDbLine
 10
5.0
 20
0.0
 30
0.0
 11
9.5
 21
0.0
 31
0.0
  0
ENDBLK
  5
E0
330
DE
100
AcDbEntity
  8
0
100
AcDbBlockEnd
  0
BLOCK
  5
EB
330
EA
100
AcDbEntity
  8
0
100
AcDbBlockBegin
  2
SW_CENTERMARKSYMBOL_2
 70
     0
 10
0.0
 20
0.0
 30
0.0
  3
SW_CENTERMARKSYMBOL_2
  1

  0
LINE
  5
ED
330
EA
100
AcDbEntity
  8
FORMAT
 62
     0
100
AcDbLine
 10
0.0
 20
0.0
 30
0.0
 11
0.0
 21
2.5
 31
0.0
  0
LINE
  5
EE
330
EA
100
AcDbEntity
  8
FORMAT
 62
     0
100
AcDbLine
 10
0.0
 20
0.0
 30
0.0
 11
-2.5
 21
0.0
 31
0.0
  0
LINE
  5
EF
330
EA
100
AcDbEntity
  8
FORMAT
 62
     0
100
AcDbLine
 10
0.0
 20
0.0
 30
0.0
 11
0.0
 21
-2.5
 31
0.0
  0
LINE
  5
F0
330
EA
100
AcDbEntity
  8
FORMAT
 62
     0
100
AcDbLine
 10
0.0
 20
0.0
 30
0.0
 11
2.5
 21
0.0
 31
0.0
  0
LINE
  5
F1
330
EA
100
AcDbEntity
  8
FORMAT
 62
     0
100
AcDbLine
 10
0.0
 20
5.0
 30
0.0
 11
0.0
 21
9.5
 31
0.0
  0
LINE
  5
F2
330
EA
100
AcDbEntity
  8
FORMAT
 62
     0
100
AcDbLine
 10
-5.0
 20
0.0
 30
0.0
 11
-9.5
 21
0.0
 31
0.0
  0
LINE
  5
F3
330
EA
100
AcDbEntity
  8
FORMAT
 62
     0
100
AcDbLine
 10
0.0
 20
-5.0
 30
0.0
 11
0.0
 21
-9.5
 31
0.0
  0
LINE
  5
F4
330
EA
100
AcDbEntity
  8
FORMAT
 62
     0
100
AcDbLine
 10
5.0
 20
0.0
 30
0.0
 11
9.5
 21
0.0
 31
0.0
  0
ENDBLK
  5
EC
330
EA
100
AcDbEntity
  8
0
100
AcDbBlockEnd
  0
ENDSEC
  0
SECTION
  2
ENTITIES
  0
LINE
  5
83
330
1F
100
AcDbEntity
  8
0
  6
Continuous
 62
     7
370
    25
100
AcDbLine
 10
137.6070913462
 20
287.1604020766
 30
0.0
 11
137.6070913462
 21
290.3949519231
 31
0.0
  0
LINE
  5
84
330
1F
100
AcDbEntity
  8
0
  6
Continuous
 62
     7
370
    25
100
AcDbLine
 10
123.6070913462
 20
290.3949519231
 30
0.0
 11
123.6070913462
 21
287.1609876824
 31
0.0
  0
CIRCLE
  5
85
330
1F
100
AcDbEntity
  8
0
  6
Continuous
 62
     7
370
    25
100
AcDbCircle
 10
130.6070913462
 20
95.8949519231
 30
0.0
 40
191.2
  0
ARC
  5
86
330
1F
100
AcDbEntity
  8
0
  6
Continuous
 62
     7
370
    25
100
AcDbCircle
 10
130.6070913462
 20
95.8949519231
 30
0.0
 40
192.2000000000006
100
AcDbArc
 50
92.0871965447
 51
180.0
  0
ARC
  5
87
330
1F
100
AcDbEntity
  8
0
  6
Continuous
 62
     7
370
    25
100
AcDbCircle
 10
130.6070913462
 20
95.8949519231
 30
0.0
 40
192.2000000000006
100
AcDbArc
 50
180.0
 51
87.9128034553
  0
SPLINE
  5
88
330
1F
100
AcDbEntity
  8
0
  6
Continuous
 62
     7
370
    25
100
AcDbSpline
210
0.0
220
0.0
230
1.0
 70
     8
 71
     3
 72
    14
 73
    10
 74
     0
 42
0.00000001
 43
0.00000001
 40
0.0
 40
0.0
 40
0.0
 40
0.0
 40
0.1561948277022696
 40
0.3123905833509711
 40
0.4685650156942175
 40
0.6247510097998961
 40
0.7809633773861949
 40
0.9371438801663494
 40
1.0
 40
1.0
 40
1.0
 40
1.0
 10
134.496433427078
 20
287.1561726392353
 30
0.0
 10
133.7990902890386
 20
287.162408755932
 30
0.0
 10
132.4043998700756
 20
287.1748810263739
 30
0.0
 10
129.9914373861605
 20
287.1791566340285
 30
0.0
 10
127.6828955878231
 20
287.1666742883163
 30
0.0
 10
125.6825553453484
 20
287.1452146945364
 30
0.0
 10
124.2877800627465
 20
287.132767366753
 30
0.0
 10
123.5965128158852
 20
287.1359049064743
 30
0.0
 10
123.6788868007003
 20
287.1553947538574
 30
0.0
 10
123.702525354833
 20
287.1609876824189
 30
0.0
  0
SPLINE
  5
89
330
1F
100
AcDbEntity
  8
0
  6
Continuous
 62
     7
370
    25
100
AcDbSpline
210
0.0
220
0.0
230
1.0
 70
     8
 71
     3
 72
    11
 73
     7
 74
     0
 42
0.00000001
 43
0.00000001
 40
0.0
 40
0.0
 40
0.0
 40
0.0
 40
0.0967178117667524
 40
0.4401750946992722
 40
0.7835245388287575
 40
0.9999999999999999
 40
0.9999999999999999
 40
0.9999999999999999
 40
0.9999999999999999
 10
137.5267741797605
 20
287.160402076572
 30
0.0
 10
137.5502462572698
 20
287.1562613205581
 30
0.0
 10
137.6570706751479
 20
287.1374162119146
 30
0.0
 10
137.0423872350843
 20
287.1326254548872
 30
0.0
 10
135.9137148156549
 20
287.1414974766807
 30
0.0
 10
134.8916498348661
 20
287.1520803925754
 30
0.0
 10
134.496433427078
 20
287.1561726392353
 30
0.0
  0
CIRCLE
  5
8A
330
1F
100
AcDbEntity
  8
0
  6
Continuous
 62
     7
370
    25
100
AcDbCircle
 10
130.6070913462
 20
95.8949519231
 30
0.0
 40
158.2
  0
LINE
  5
8B
330
1F
100
AcDbEntity
  8
0
  6
Continuous
 62
     7
370
    25
100
AcDbLine
 10
137.6070913462
 20
290.3949519231
 30
0.0
 11
123.6070913462
 21
290.3949519231
 31
0.0
  0
INSERT
  5
97
330
1F
100
AcDbEntity
  8
FORMAT
 62
     7
100
AcDbBlockReference
  2
SW_CENTERMARKSYMBOL_0
 10
130.6070913462
 20
95.8949519231
 30
0.0
  0
LINE
  5
98
330
1F
100
AcDbEntity
  8
0
  6
Continuous
 62
     7
370
    25
100
AcDbLine
 10
592.9837422362
 20
-96.3050480769
 30
0.0
 11
617.9837422362
 21
-96.3050480769
 31
0.0
  0
LINE
  5
99
330
1F
100
AcDbEntity
  8
0
  6
Continuous
 62
     7
370
    25
100
AcDbLine
 10
617.9837422362
 20
288.0949519231
 30
0.0
 11
592.9837422362
 21
288.0949519231
 31
0.0
  0
ARC
  5
9A
330
1F
100
AcDbEntity
  8
0
  6
Continuous
 62
     7
370
    25
100
AcDbCircle
 10
617.9837422362
 20
-6852.530048077
 30
0.0
 40
7140.625000000055
100
AcDbArc
 50
89.19338924
 51
90.0
  0
LINE
  5
9B
330
1F
100
AcDbEntity
  8
0
  6
Continuous
 62
     7
370
    25
100
AcDbLine
 10
737.4837422362
 20
287.0949519231
 30
0.0
 11
732.4083178021
 21
287.1780977181
 31
0.0
  0
ARC
  5
9C
330
1F
100
AcDbEntity
  8
0
  6
Continuous
 62
     7
370
    25
100
AcDbCircle
 10
617.9837422362
 20
7044.3199519231
 30
0.0
 40
7140.625000000055
100
AcDbArc
 50
270.0
 51
270.9589027976
  0
LINE
  5
9D
330
1F
100
AcDbEntity
  8
0
  6
Continuous
 62
     7
370
    25
100
AcDbLine
 10
478.5106792629
 20
287.1773204697
 30
0.0
 11
473.4837422362
 21
287.0949519231
 31
0.0
  0
ARC
  5
9E
330
1F
100
AcDbEntity
  8
0
  6
Continuous
 62
     7
370
    25
100
AcDbCircle
 10
592.9837422362
 20
-6852.530048077
 30
0.0
 40
7140.625000000055
100
AcDbArc
 50
90.0
 51
90.8070184589
  0
ARC
  5
9F
330
1F
100
AcDbEntity
  8
0
  6
Continuous
 62
     7
370
    25
100
AcDbCircle
 10
592.9837422362
 20
7044.3199519231
 30
0.0
 40
7140.625000000055
100
AcDbArc
 50
269.0410972024
 51
270.0
  0
LINE
  5
A0
330
1F
100
AcDbEntity
  8
0
  6
Continuous
 62
     7
370
    25
100
AcDbLine
 10
492.4837422362
 20
287.3840361061
 30
0.0
 11
492.4837422362
 21
290.3949519231
 31
0.0
  0
LINE
  5
A1
330
1F
100
AcDbEntity
  8
0
  6
Continuous
 62
     7
370
    25
100
AcDbLine
 10
478.4837422362
 20
290.3949519231
 30
0.0
 11
478.4837422362
 21
287.1763657921
 31
0.0
  0
LINE
  5
A2
330
1F
100
AcDbEntity
  8
0
  6
Continuous
 62
     7
370
    25
100
AcDbLine
 10
732.4837422362
 20
287.1753805725
 30
0.0
 11
732.4837422362
 21
290.3949519231
 31
0.0
  0
LINE
  5
A3
330
1F
100
AcDbEntity
  8
0
  6
Continuous
 62
     7
370
    25
100
AcDbLine
 10
718.4837422362
 20
290.3949519231
 30
0.0
 11
718.4837422362
 21
287.3865855646
 31
0.0
  0
LINE
  5
A4
330
1F
100
AcDbEntity
  8
0
  6
Continuous
 62
     7
370
    25
100
AcDbLine
 10
737.4837422362
 20
95.8949519231
 30
0.0
 11
737.4837422362
 21
287.0949519231
 31
0.0
  0
LINE
  5
A5
330
1F
100
AcDbEntity
  8
0
  6
Continuous
 62
     7
370
    25
100
AcDbLine
 10
737.4837422362
 20
-95.3050480769
 30
0.0
 11
737.4837422362
 21
95.8949519231
 31
0.0
  0
SPLINE
  5
A6
330
1F
100
AcDbEntity
  8
0
  6
Continuous
 62
     7
370
    25
100
AcDbSpline
210
0.0
220
0.0
230
1.0
 70
     8
 71
     3
 72
    18
 73
    14
 74
     0
 42
0.00000001
 43
0.00000001
 40
0.0
 40
0.0
 40
0.0
 40
0.0
 40
0.027443263834544
 40
0.1347586532445249
 40
0.2420819873290538
 40
0.3494234439724445
 40
0.4567430046881308
 40
0.5640221618928465
 40
0.6713206401817062
 40
0.7787021942412619
 40
0.8861240647905586
 40
0.9934683596298509
 40
1.0
 40
1.0
 40
1.0
 40
1.0
 10
732.4082454964978
 20
287.1753693738112
 30
0.0
 10
732.4309734932367
 20
287.1758260674186
 30
0.0
 10
732.5425780840735
 20
287.1780686365187
 30
0.0
 10
731.9500152620468
 20
287.1658112569127
 30
0.0
 10
730.6641822091897
 20
287.1457099341423
 30
0.0
 10
728.73227277092
 20
287.1316495327714
 30
0.0
 10
726.451453990091
 20
287.1406592587232
 30
0.0
 10
724.056170346623
 20
287.1796724374539
 30
0.0
 10
721.8291687310751
 20
287.2430415969889
 30
0.0
 10
719.9896460916785
 20
287.3153266748045
 30
0.0
 10
718.8556092021477
 20
287.3686332356075
 30
0.0
 10
718.3686418996947
 20
287.3934084610485
 30
0.0
 10
718.4988369646846
 20
287.386926591127
 30
0.0
 10
718.506304629744
 20
287.3865548071923
 30
0.0
  0
LINE
  5
A7
330
1F
100
AcDbEntity
  8
0
  6
Continuous
 62
     7
370
    25
100
AcDbLine
 10
473.4837422362
 20
95.8949519231
 30
0.0
 11
473.4837422362
 21
287.0949519231
 31
0.0
  0
LINE
  5
A8
330
1F
100
AcDbEntity
  8
0
  6
Continuous
 62
     7
370
    25
100
AcDbLine
 10
473.4837422362
 20
-95.3050480769
 30
0.0
 11
473.4837422362
 21
95.8949519231
 31
0.0
  0
SPLINE
  5
A9
330
1F
100
AcDbEntity
  8
0
  6
Continuous
 62
     7
370
    25
100
AcDbSpline
210
0.0
220
0.0
230
1.0
 70
     8
 71
     3
 72
    18
 73
    14
 74
     0
 42
0.00000001
 43
0.00000001
 40
0.0
 40
0.0
 40
0.0
 40
0.0
 40
0.0262222999255258
 40
0.1334301911155909
 40
0.2406687982491143
 40
0.3480270281095367
 40
0.4554487109550737
 40
0.5628179529040143
 40
0.6701079823678273
 40
0.777389489131299
 40
0.8847131841729744
 40
0.9920524670747732
 40
0.9999999999999999
 40
0.9999999999999999
 40
0.9999999999999999
 40
0.9999999999999999
 10
492.410562767838
 20
287.3840062715543
 30
0.0
 10
492.4327959455985
 20
287.385121316041
 30
0.0
 10
492.5459277901015
 20
287.3907951356296
 30
0.0
 10
491.9612153608577
 20
287.361106147798
 30
0.0
 10
490.6860682940946
 20
287.3026944593729
 30
0.0
 10
488.7611931199471
 20
287.2304630181218
 30
0.0
 10
486.4829448082943
 20
287.1704523776074
 30
0.0
 10
484.0857848831941
 20
287.1368718041438
 30
0.0
 10
481.8543730992292
 20
287.1328278586809
 30
0.0
 10
480.0092947304888
 20
287.1495649791923
 30
0.0
 10
478.8653161690943
 20
287.1688274013835
 30
0.0
 10
478.3721764561434
 20
287.1790905182439
 30
0.0
 10
478.5019021075604
 20
287.1765296303309
 30
0.0
 10
478.5108450112089
 20
287.1763530902742
 30
0.0
  0
LINE
  5
AA
330
1F
100
AcDbEntity
  8
0
  6
Continuous
 62
     7
370
    25
100
AcDbLine
 10
492.4837422362
 20
290.3949519231
 30
0.0
 11
478.4837422362
 21
290.3949519231
 31
0.0
  0
LINE
  5
AB
330
1F
100
AcDbEntity
  8
0
  6
Continuous
 62
     7
370
    25
100
AcDbLine
 10
732.4837422362
 20
290.3949519231
 30
0.0
 11
718.4837422362
 21
290.3949519231
 31
0.0
  0
LINE
  5
AC
330
1F
100
AcDbEntity
  8
0
  6
Continuous
 62
     1
370
    25
100
AcDbLine
 10
617.9837422362
 20
95.8949519231
 30
0.0
 11
617.9837422362
 21
288.0949519231
 31
0.0
  0
LINE
  5
AD
330
1F
100
AcDbEntity
  8
0
  6
Continuous
 62
     1
370
    25
100
AcDbLine
 10
617.9837422362
 20
-96.3050480769
 30
0.0
 11
617.9837422362
 21
95.8949519231
 31
0.0
  0
LINE
  5
AE
330
1F
100
AcDbEntity
  8
0
  6
Continuous
 62
     1
370
    25
100
AcDbLine
 10
592.9837422362
 20
95.8949519231
 30
0.0
 11
592.9837422362
 21
288.0949519231
 31
0.0
  0
LINE
  5
AF
330
1F
100
AcDbEntity
  8
0
  6
Continuous
 62
     1
370
    25
100
AcDbLine
 10
592.9837422362
 20
-96.3050480769
 30
0.0
 11
592.9837422362
 21
95.8949519231
 31
0.0
  0
LINE
  5
B0
330
1F
100
AcDbEntity
  8
0
  6
Continuous
 62
     7
370
    25
100
AcDbLine
 10
322.8070913462
 20
523.9494214497
 30
0.0
 11
322.8070913462
 21
548.9494214497
 31
0.0
  0
LINE
  5
B1
330
1F
100
AcDbEntity
  8
0
  6
Continuous
 62
     7
370
    25
100
AcDbLine
 10
-61.5929086538
 20
548.9494214497
 30
0.0
 11
-61.5929086538
 21
523.9494214497
 31
0.0
  0
ARC
  5
B2
330
1F
100
AcDbEntity
  8
0
  6
Continuous
 62
     7
370
    25
100
AcDbCircle
 10
7079.0320913462
 20
548.9494214497
 30
0.0
 40
7140.625000000055
100
AcDbArc
 50
179.0410972024
 51
180.0
  0
ARC
  5
B3
330
1F
100
AcDbEntity
  8
0
  6
Continuous
 62
     7
370
    25
100
AcDbCircle
 10
-6817.8179086539
 20
548.9494214497
 30
0.0
 40
7140.625000000055
100
AcDbArc
 50
0.0
 51
0.9589027976
  0
ARC
  5
B4
330
1F
100
AcDbEntity
  8
0
  6
Continuous
 62
     7
370
    25
100
AcDbCircle
 10
7079.0320913462
 20
523.9494214497
 30
0.0
 40
7140.625000000055
100
AcDbArc
 50
180.0
 51
180.9589027976
  0
ARC
  5
B5
330
1F
100
AcDbEntity
  8
0
  6
Continuous
 62
     7
370
    25
100
AcDbCircle
 10
-6817.8179086539
 20
523.9494214497
 30
0.0
 40
7140.625000000055
100
AcDbArc
 50
359.0410972024
 51
0.0
  0
LINE
  5
B6
330
1F
100
AcDbEntity
  8
0
  6
Continuous
 62
     7
370
    25
100
AcDbLine
 10
321.8070913462
 20
668.4494214497
 30
0.0
 11
-60.5929086538
 21
668.4494214497
 31
0.0
  0
LINE
  5
B7
330
1F
100
AcDbEntity
  8
0
  6
Continuous
 62
     7
370
    25
100
AcDbLine
 10
321.8070913462
 20
404.4494214497
 30
0.0
 11
-60.5929086538
 21
404.4494214497
 31
0.0
  0
LINE
  5
B8
330
1F
100
AcDbEntity
  8
0
  6
Continuous
 62
     1
370
    25
100
AcDbLine
 10
322.8070913462
 20
548.9494214497
 30
0.0
 11
-61.5929086538
 21
548.9494214497
 31
0.0
  0
LINE
  5
B9
330
1F
100
AcDbEntity
  8
0
  6
Continuous
 62
     1
370
    25
100
AcDbLine
 10
322.8070913462
 20
523.9494214497
 30
0.0
 11
-61.5929086538
 21
523.9494214497
 31
0.0
  0
LINE
  5
BA
330
1F
100
AcDbEntity
  8
0
  6
Continuous
 62
     7
370
    25
100
AcDbLine
 10
-362.9589739442
 20
288.0949519231
 30
0.0
 11
-387.9589739442
 21
288.0949519231
 31
0.0
  0
LINE
  5
BB
330
1F
100
AcDbEntity
  8
0
  6
Continuous
 62
     7
370
    25
100
AcDbLine
 10
-387.9589739442
 20
-96.3050480769
 30
0.0
 11
-362.9589739442
 21
-96.3050480769
 31
0.0
  0
ARC
  5
BC
330
1F
100
AcDbEntity
  8
0
  6
Continuous
 62
     7
370
    25
100
AcDbCircle
 10
-387.9589739442
 20
7044.3199519231
 30
0.0
 40
7140.625000000055
100
AcDbArc
 50
269.0410972024
 51
270.0
  0
LINE
  5
BD
330
1F
100
AcDbEntity
  8
0
  6
Continuous
 62
     7
370
    25
100
AcDbLine
 10
-502.3836782
 20
287.1780956556
 30
0.0
 11
-507.4589739442
 21
287.0949519231
 31
0.0
  0
ARC
  5
BE
330
1F
100
AcDbEntity
  8
0
  6
Continuous
 62
     7
370
    25
100
AcDbCircle
 10
-387.9589739442
 20
-6852.530048077
 30
0.0
 40
7140.625000000055
100
AcDbArc
 50
90.0
 51
90.806612164
  0
ARC
  5
BF
330
1F
100
AcDbEntity
  8
0
  6
Continuous
 62
     7
370
    25
100
AcDbCircle
 10
-362.9589739442
 20
7044.3199519231
 30
0.0
 40
7140.625000000055
100
AcDbArc
 50
270.0
 51
270.9589027976
  0
ARC
  5
C0
330
1F
100
AcDbEntity
  8
0
  6
Continuous
 62
     7
370
    25
100
AcDbCircle
 10
-362.9589739442
 20
-6852.530048077
 30
0.0
 40
7140.625000000055
100
AcDbArc
 50
89.1929828475
 51
90.0
  0
LINE
  5
C1
330
1F
100
AcDbEntity
  8
0
  6
Continuous
 62
     7
370
    25
100
AcDbLine
 10
-243.4589739442
 20
287.0949519231
 30
0.0
 11
-248.4860718596
 21
287.1773230492
 31
0.0
  0
LINE
  5
C2
330
1F
100
AcDbEntity
  8
0
  6
Continuous
 62
     7
370
    25
100
AcDbLine
 10
-248.4589739442
 20
287.1763657921
 30
0.0
 11
-248.4589739442
 21
290.3949519231
 31
0.0
  0
LINE
  5
C3
330
1F
100
AcDbEntity
  8
0
  6
Continuous
 62
     7
370
    25
100
AcDbLine
 10
-262.4589739442
 20
290.3949519231
 30
0.0
 11
-262.4589739442
 21
287.3840361061
 31
0.0
  0
LINE
  5
C4
330
1F
100
AcDbEntity
  8
0
  6
Continuous
 62
     7
370
    25
100
AcDbLine
 10
-488.4589739442
 20
287.3865855646
 30
0.0
 11
-488.4589739442
 21
290.3949519231
 31
0.0
  0
LINE
  5
C5
330
1F
100
AcDbEntity
  8
0
  6
Continuous
 62
     7
370
    25
100
AcDbLine
 10
-502.4589739442
 20
290.3949519231
 30
0.0
 11
-502.4589739442
 21
287.1753805725
 31
0.0
  0
LINE
  5
C6
330
1F
100
AcDbEntity
  8
0
  6
Continuous
 62
     7
370
    25
100
AcDbLine
 10
-507.4589739442
 20
287.0949519231
 30
0.0
 11
-507.4589739442
 21
-95.3050480769
 31
0.0
  0
SPLINE
  5
C7
330
1F
100
AcDbEntity
  8
0
  6
Continuous
 62
     7
370
    25
100
AcDbSpline
210
0.0
220
0.0
230
1.0
 70
     8
 71
     3
 72
     9
 73
     5
 74
     0
 42
0.00000001
 43
0.00000001
 40
0.0
 40
0.0
 40
0.0
 40
0.0
 40
0.5732687622931921
 40
1.0
 40
1.0
 40
1.0
 40
1.0
 10
-501.2790270520385
 20
287.1561726392348
 30
0.0
 10
-501.6717972236497
 20
287.1627931423605
 30
0.0
 10
-502.3569386397633
 20
287.1743418321918
 30
0.0
 10
-502.3755489618555
 20
287.1750622257323
 30
0.0
 10
-502.3834905676362
 20
287.1753696401596
 30
0.0
  0
SPLINE
  5
C8
330
1F
100
AcDbEntity
  8
0
  6
Continuous
 62
     7
370
    25
100
AcDbSpline
210
0.0
220
0.0
230
1.0
 70
     8
 71
     3
 72
    15
 73
    11
 74
     0
 42
0.00000001
 43
0.00000001
 40
0.0
 40
0.0
 40
0.0
 40
0.0
 40
0.123966078539023
 40
0.2559619742759336
 40
0.388089247127664
 40
0.5203322239181222
 40
0.6525488303568758
 40
0.7846610719485796
 40
0.9167318329058421
 40
1.0
 40
1.0
 40
1.0
 40
1.0
 10
-488.481546225234
 20
287.3865543153578
 30
0.0
 10
-488.5407337908362
 20
287.3834898957135
 30
0.0
 10
-488.6629427557618
 20
287.3771625607573
 30
0.0
 10
-489.8081110739739
 20
287.3221532535512
 30
0.0
 10
-491.548486485863
 20
287.2521170554435
 30
0.0
 10
-493.7476158573655
 20
287.1862377386239
 30
0.0
 10
-496.1383296845561
 20
287.1437647007097
 30
0.0
 10
-498.4426581337677
 20
287.1313163760258
 30
0.0
 10
-500.2010110226772
 20
287.1416882005524
 30
0.0
 10
-500.9784165832241
 20
287.152133576935
 30
0.0
 10
-501.2790270520385
 20
287.1561726392348
 30
0.0
  0
LINE
  5
C9
330
1F
100
AcDbEntity
  8
0
  6
Continuous
 62
     7
370
    25
100
AcDbLine
 10
-243.4589739442
 20
287.0949519231
 30
0.0
 11
-243.4589739442
 21
-95.3050480769
 31
0.0
  0
SPLINE
  5
CA
330
1F
100
AcDbEntity
  8
0
  6
Continuous
 62
     7
370
    25
100
AcDbSpline
210
0.0
220
0.0
230
1.0
 70
     8
 71
     3
 72
     9
 73
     5
 74
     0
 42
0.00000001
 43
0.00000001
 40
0.0
 40
0.0
 40
0.0
 40
0.0
 40
0.5696058440232815
 40
1.0
 40
1.0
 40
1.0
 40
1.0
 10
-261.2655941672261
 20
287.3308678522753
 30
0.0
 10
-261.6600579313524
 20
287.3493615990577
 30
0.0
 10
-262.3525785019634
 20
287.3818292202671
 30
0.0
 10
-262.3758023386521
 20
287.3833513284092
 30
0.0
 10
-262.3857977422423
 20
287.3840064348583
 30
0.0
  0
SPLINE
  5
CB
330
1F
100
AcDbEntity
  8
0
  6
Continuous
 62
     7
370
    25
100
AcDbSpline
210
0.0
220
0.0
230
1.0
 70
     8
 71
     3
 72
    15
 73
    11
 74
     0
 42
0.00000001
 43
0.00000001
 40
0.0
 40
0.0
 40
0.0
 40
0.0
 40
0.1224948408633792
 40
0.2547995920661805
 40
0.3871302960067173
 40
0.519453262149096
 40
0.6517238560034252
 40
0.7839860576359728
 40
0.9163347581407533
 40
1.0
 40
1.0
 40
1.0
 40
1.0
 10
-248.4861172942237
 20
287.1763522914017
 30
0.0
 10
-248.5416766025318
 20
287.1751443508619
 30
0.0
 10
-248.6572446459905
 20
287.1726317327418
 30
0.0
 10
-249.791627591926
 20
287.152185803018
 30
0.0
 10
-251.5265403235499
 20
287.134423650866
 30
0.0
 10
-253.721979518171
 20
287.1345202275382
 30
0.0
 10
-256.1104840420039
 20
287.1637272779059
 30
0.0
 10
-258.4162117356197
 20
287.2204068994774
 30
0.0
 10
-260.1804006101294
 20
287.2837135181367
 30
0.0
 10
-260.9626269069076
 20
287.3177031782568
 30
0.0
 10
-261.2655941672261
 20
287.3308678522753
 30
0.0
  0
LINE
  5
CC
330
1F
100
AcDbEntity
  8
0
  6
Continuous
 62
     7
370
    25
100
AcDbLine
 10
-248.4589739442
 20
290.3949519231
 30
0.0
 11
-262.4589739442
 21
290.3949519231
 31
0.0
  0
LINE
  5
CD
330
1F
100
AcDbEntity
  8
0
  6
Continuous
 62
     7
370
    25
100
AcDbLine
 10
-488.4589739442
 20
290.3949519231
 30
0.0
 11
-502.4589739442
 21
290.3949519231
 31
0.0
  0
LINE
  5
CE
330
1F
100
AcDbEntity
  8
0
  6
Continuous
 62
     1
370
    25
100
AcDbLine
 10
-387.9589739442
 20
288.0949519231
 30
0.0
 11
-387.9589739442
 21
-96.3050480769
 31
0.0
  0
LINE
  5
CF
330
1F
100
AcDbEntity
  8
0
  6
Continuous
 62
     1
370
    25
100
AcDbLine
 10
-362.9589739442
 20
288.0949519231
 30
0.0
 11
-362.9589739442
 21
-96.3050480769
 31
0.0
  0
LINE
  5
D0
330
1F
100
AcDbEntity
  8
0
  6
Continuous
 62
     7
370
    25
100
AcDbLine
 10
-61.5929086538
 20
-376.7155269352
 30
0.0
 11
-61.5929086538
 21
-401.7155269352
 31
0.0
  0
LINE
  5
D1
330
1F
100
AcDbEntity
  8
0
  6
Continuous
 62
     7
370
    25
100
AcDbLine
 10
322.8070913462
 20
-401.7155269352
 30
0.0
 11
322.8070913462
 21
-376.7155269352
 31
0.0
  0
ARC
  5
D2
330
1F
100
AcDbEntity
  8
0
  6
Continuous
 62
     7
370
    25
100
AcDbCircle
 10
-6817.8179086539
 20
-401.7155269352
 30
0.0
 40
7140.625000000055
100
AcDbArc
 50
359.0410972024
 51
0.0
  0
ARC
  5
D3
330
1F
100
AcDbEntity
  8
0
  6
Continuous
 62
     7
370
    25
100
AcDbCircle
 10
7079.0320913462
 20
-401.7155269352
 30
0.0
 40
7140.625000000055
100
AcDbArc
 50
180.0
 51
180.9589027976
  0
ARC
  5
D4
330
1F
100
AcDbEntity
  8
0
  6
Continuous
 62
     7
370
    25
100
AcDbCircle
 10
-6817.8179086539
 20
-376.7155269352
 30
0.0
 40
7140.625000000055
100
AcDbArc
 50
0.0
 51
0.9589027976
  0
ARC
  5
D5
330
1F
100
AcDbEntity
  8
0
  6
Continuous
 62
     7
370
    25
100
AcDbCircle
 10
7079.0320913462
 20
-376.7155269352
 30
0.0
 40
7140.625000000055
100
AcDbArc
 50
179.0410972024
 51
180.0
  0
CIRCLE
  5
D6
330
1F
100
AcDbEntity
  8
0
  6
Continuous
 62
     7
370
    25
100
AcDbCircle
 10
130.6070913462
 20
-269.2155269352
 30
0.0
 40
7.0
  0
CIRCLE
  5
D7
330
1F
100
AcDbEntity
  8
0
  6
Continuous
 62
     7
370
    25
100
AcDbCircle
 10
130.6070913462
 20
-269.2155269352
 30
0.0
 40
5.0
  0
CIRCLE
  5
D8
330
1F
100
AcDbEntity
  8
0
  6
Continuous
 62
     7
370
    25
100
AcDbCircle
 10
130.6070913462
 20
-509.2155269352
 30
0.0
 40
7.0
  0
CIRCLE
  5
D9
330
1F
100
AcDbEntity
  8
0
  6
Continuous
 62
     7
370
    25
100
AcDbCircle
 10
130.6070913462
 20
-509.2155269352
 30
0.0
 40
5.0
  0
LINE
  5
DA
330
1F
100
AcDbEntity
  8
0
  6
Continuous
 62
     7
370
    25
100
AcDbLine
 10
-60.5929086538
 20
-521.2155269352
 30
0.0
 11
321.8070913462
 21
-521.2155269352
 31
0.0
  0
LINE
  5
DB
330
1F
100
AcDbEntity
  8
0
  6
Continuous
 62
     7
370
    25
100
AcDbLine
 10
-60.5929086538
 20
-257.2155269352
 30
0.0
 11
321.8070913462
 21
-257.2155269352
 31
0.0
  0
LINE
  5
DC
330
1F
100
AcDbEntity
  8
0
  6
Continuous
 62
     1
370
    25
100
AcDbLine
 10
-61.5929086538
 20
-401.7155269352
 30
0.0
 11
322.8070913462
 21
-401.7155269352
 31
0.0
  0
LINE
  5
DD
330
1F
100
AcDbEntity
  8
0
  6
Continuous
 62
     1
370
    25
100
AcDbLine
 10
-61.5929086538
 20
-376.7155269352
 30
0.0
 11
322.8070913462
 21
-376.7155269352
 31
0.0
  0
INSERT
  5
E9
330
1F
100
AcDbEntity
  8
FORMAT
 62
     7
100
AcDbBlockReference
  2
SW_CENTERMARKSYMBOL_1
 10
130.6070913462
 20
-269.2155269352
 30
0.0
  0
INSERT
  5
F5
330
1F
100
AcDbEntity
  8
FORMAT
 62
     7
100
AcDbBlockReference
  2
SW_CENTERMARKSYMBOL_2
 10
130.6070913462
 20
-509.2155269352
 30
0.0
  0
SPLINE
  5
F6
330
1F
100
AcDbEntity
  8
0
  6
Continuous
 62
     7
370
    25
100
AcDbSpline
210
0.0
220
0.0
230
1.0
 70
     8
 71
     3
 72
    11
 73
     7
 74
     0
 42
0.00000001
 43
0.00000001
 40
0.0
 40
0.0
 40
0.0
 40
0.0
 40
0.1286817679470782
 40
0.5234276693416988
 40
0.9181250290921914
 40
1.0
 40
1.0
 40
1.0
 40
1.0
 10
554.550274301407
 20
-276.8173405531478
 30
0.0
 10
550.8718472239456
 20
-278.9293991408386
 30
0.0
 10
535.9094283613849
 20
-287.5204367190819
 30
0.0
 10
509.8371441006815
 20
-302.886464469274
 30
0.0
 10
485.1406067401164
 20
-317.54704001514
 30
0.0
 10
471.7266230392755
 20
-325.7171802154007
 30
0.0
 10
469.4221050162776
 20
-327.1208076359962
 30
0.0
  0
SPLINE
  5
F7
330
1F
100
AcDbEntity
  8
0
  6
Continuous
 62
     7
370
    25
100
AcDbSpline
210
0.0
220
0.0
230
1.0
 70
     8
 71
     3
 72
    10
 73
     6
 74
     0
 42
0.00000001
 43
0.00000001
 40
0.0
 40
0.0
 40
0.0
 40
0.0
 40
0.3391005229903026
 40
0.7339015504039177
 40
0.9999999999999999
 40
0.9999999999999999
 40
0.9999999999999999
 40
0.9999999999999999
 10
660.5704688969583
 20
-658.2357401438774
 30
0.0
 10
670.3541699180415
 20
-652.8331613632507
 30
0.0
 10
691.5286384347613
 20
-641.1405785612052
 30
0.0
 10
720.2353211251511
 20
-624.9401194456005
 30
0.0
 10
739.1031921311384
 20
-614.0507818177869
 30
0.0
 10
746.6999771136122
 20
-609.6663996830027
 30
0.0
  0
LINE
  5
F8
330
1F
100
AcDbEntity
  8
0
  6
Continuous
 62
     7
370
    25
100
AcDbLine
 10
572.2105821493
 20
-266.582190537
 30
0.0
 11
554.5329126196
 21
-276.7872919348
 31
0.0
  0
LINE
  5
F9
330
1F
100
AcDbEntity
  8
0
  6
Continuous
 62
     7
370
    25
100
AcDbLine
 10
746.7172930323
 20
-609.696474634
 30
0.0
 11
764.3949625619
 21
-599.4913732362
 31
0.0
  0
SPLINE
  5
FA
330
1F
100
AcDbEntity
  8
0
  6
Continuous
 62
     7
370
    25
100
AcDbSpline
210
0.0
220
0.0
230
1.0
 70
     8
 71
     3
 72
    10
 73
     6
 74
     0
 42
0.00000001
 43
0.00000001
 40
0.0
 40
0.0
 40
0.0
 40
0.0
 40
0.3391109842429279
 40
0.7339060813766048
 40
1.0
 40
1.0
 40
1.0
 40
1.0
 10
658.3587516238046
 20
-218.0421796229008
 30
0.0
 10
648.5746016374079
 20
-223.4450059124864
 30
0.0
 10
627.3996839562591
 20
-235.1378358554639
 30
0.0
 10
598.6925692435346
 20
-251.3385368192131
 30
0.0
 10
579.8247135446468
 20
-262.2278657696443
 30
0.0
 10
572.2279438310716
 20
-266.6122391553634
 30
0.0
  0
SPLINE
  5
FB
330
1F
100
AcDbEntity
  8
0
  6
Continuous
 62
     7
370
    25
100
AcDbSpline
210
0.0
220
0.0
230
1.0
 70
     8
 71
     3
 72
    11
 73
     7
 74
     0
 42
0.00000001
 43
0.00000001
 40
0.0
 40
0.0
 40
0.0
 40
0.0
 40
0.1286792655966696
 40
0.5234191286106845
 40
0.9181104507243762
 40
1.0
 40
1.0
 40
1.0
 40
1.0
 10
764.3776466432785
 20
-599.4612982852175
 30
0.0
 10
768.0560584432582
 20
-597.3492484362961
 30
0.0
 10
783.0184619827022
 20
-588.7582195212742
 30
0.0
 10
809.0907317301563
 20
-573.3922017466375
 30
0.0
 10
833.7877155537252
 20
-558.7313562051833
 30
0.0
 10
847.2021440088064
 20
-550.5609432518685
 30
0.0
 10
849.5071074807443
 20
-549.1570441986139
 30
0.0
  0
LINE
  5
FC
330
1F
100
AcDbEntity
  8
0
  6
Continuous
 62
     7
370
    25
100
AcDbLine
 10
581.6111238484
 20
-330.8388909223
 30
0.0
 11
581.6111238484
 21
-328.3066313831
 31
0.0
  0
LINE
  5
FD
330
1F
100
AcDbEntity
  8
0
  6
Continuous
 62
     7
370
    25
100
AcDbLine
 10
567.6111238484
 20
-328.3066313831
 30
0.0
 11
567.6111238484
 21
-330.9596262174
 31
0.0
  0
LINE
  5
FE
330
1F
100
AcDbEntity
  8
0
  6
Continuous
 62
     7
370
    25
100
AcDbLine
 10
751.3167513332
 20
-232.9900831866
 30
0.0
 11
751.3167513332
 21
-230.3376579644
 31
0.0
  0
LINE
  5
FF
330
1F
100
AcDbEntity
  8
0
  6
Continuous
 62
     7
370
    25
100
AcDbLine
 10
737.3167513332
 20
-230.3376579644
 30
0.0
 11
737.3167513332
 21
-232.8693236455
 31
0.0
  0
LWPOLYLINE
  5
100
330
1F
100
AcDbEntity
  8
0
  6
Continuous
 62
     7
370
    25
100
AcDbPolyline
 90
      147
 70
   128
 43
0.0
 10
430.9270259113
 20
-413.9736524755
 10
431.0522044537
 20
-407.3291734964
 10
431.4275082793
 20
-400.8415266314
 10
432.0522424115
 20
-394.5227255092
 10
432.9252499868
 20
-388.3844710948
 10
434.044914396
 20
-382.4381300223
 10
435.4091622783
 20
-376.6947135466
 10
437.0154673608
 20
-371.1648571527
 10
438.8608551363
 20
-365.8588008617
 10
440.9419083713
 20
-360.7863702684
 10
443.2547734344
 20
-355.9569583465
 10
445.7951674319
 20
-351.3795080552
 10
448.5583861389
 20
-347.0624957787
 10
451.5393127104
 20
-343.0139156299
 10
454.7324271568
 20
-339.2412646472
 10
458.1318165651
 20
-335.7515289118
 10
461.7311860486
 20
-332.5511706109
 10
465.5238704038
 20
-329.6461160714
 10
469.5028464522
 20
-327.0417447854
 10
473.6607460462
 20
-324.7428794491
 10
477.9898697128
 20
-322.7537770319
 10
482.4822009118
 20
-321.0781208936
 10
487.1294208798
 20
-319.7190139635
 10
491.9229240352
 20
-318.6789729948
 10
496.8538339138
 20
-317.9599239041
 10
501.9130196054
 20
-317.5631982046
 10
507.091112663
 20
-317.489530541
 10
512.3785244501
 20
-317.739057329
 10
517.7654638973
 20
-318.3113165023
 10
523.2419556329
 20
-319.2052483686
 10
528.7978584548
 20
-320.419197572
 10
534.4228841101
 20
-321.950916158
 10
540.1066163461
 20
-323.7975677363
 10
545.8385301991
 20
-325.9557327334
 10
551.6080114842
 20
-328.4214147245
 10
557.4043764503
 20
-331.1900478341
 10
563.2168915637
 20
-334.2565051911
 10
569.0347933846
 20
-337.6151084224
 10
574.847308498
 20
-341.259638168
 10
580.6436734641
 20
-345.1833455977
 10
586.4131547492
 20
-349.3789649087
 10
592.1450686023
 20
-353.8387267798
 10
597.8288008383
 20
-358.5543727587
 10
603.4538264935
 20
-363.5171705546
 10
609.0097293155
 20
-368.7179302085
 10
614.486221051
 20
-374.1470211107
 10
619.8731604982
 20
-379.7943898347
 10
625.1605722853
 20
-385.6495787536
 10
630.3386653429
 20
-391.7017454055
 10
635.3978510346
 20
-397.9396825709
 10
640.3287609131
 20
-404.3518390262
 10
645.1222640686
 20
-410.9263409338
 10
649.7694840365
 20
-417.6510138297
 10
654.2618152355
 20
-424.5134051676
 10
658.5909389022
 20
-431.5008073785
 10
662.7488384961
 20
-438.6002814022
 10
666.7278145445
 20
-445.798680647
 10
670.5204988997
 20
-453.0826753346
 10
674.1198683832
 20
-460.4387771837
 10
677.5192577915
 20
-467.8533643871
 10
680.7123722379
 20
-475.3127068361
 10
683.6932988094
 20
-482.8029915457
 10
686.4565175164
 20
-490.310348233
 10
688.9969115139
 20
-497.8208750015
 10
691.309776577
 20
-505.3206640846
 10
693.390829812
 20
-512.7958275994
 10
695.2362175875
 20
-520.232523264
 10
696.84252267
 20
-527.6169800299
 10
698.2067705523
 20
-534.9355235831
 10
699.3264349615
 20
-542.1746016658
 10
700.1994425368
 20
-549.3208091717
 10
700.8241766691
 20
-556.3609129697
 10
701.1994804946
 20
-563.2818764081
 10
701.324659037
 20
-570.070883456
 10
701.1994804946
 20
-576.7153624352
 10
700.8241766691
 20
-583.2030093002
 10
700.1994425368
 20
-589.5218104224
 10
699.3264349615
 20
-595.6600648368
 10
698.2067705523
 20
-601.6064059092
 10
696.84252267
 20
-607.349822385
 10
695.2362175875
 20
-612.8796787789
 10
693.390829812
 20
-618.1857350699
 10
691.309776577
 20
-623.2581656632
 10
688.9969115139
 20
-628.0875775851
 10
686.4565175164
 20
-632.6650278764
 10
683.6932988094
 20
-636.9820401529
 10
680.7123722379
 20
-641.0306203017
 10
677.5192577915
 20
-644.8032712844
 10
674.1198683832
 20
-648.2930070198
 10
670.5204988997
 20
-651.4933653207
 10
666.7278145445
 20
-654.3984198602
 10
662.7488384961
 20
-657.0027911462
 10
658.5909389022
 20
-659.3016564824
 10
654.2618152355
 20
-661.2907588997
 10
649.7694840365
 20
-662.966415038
 10
645.1222640686
 20
-664.3255219681
 10
640.3287609131
 20
-665.3655629367
 10
635.3978510346
 20
-666.0846120275
 10
630.3386653429
 20
-666.481337727
 10
625.1605722853
 20
-666.5550053906
 10
619.8731604982
 20
-666.3054786026
 10
614.486221051
 20
-665.7332194293
 10
609.0097293155
 20
-664.839287563
 10
603.4538264935
 20
-663.6253383596
 10
597.8288008383
 20
-662.0936197736
 10
592.1450686023
 20
-660.2469681953
 10
586.4131547492
 20
-658.0888031982
 10
580.6436734641
 20
-655.6231212071
 10
574.847308498
 20
-652.8544880975
 10
569.0347933846
 20
-649.7880307405
 10
563.2168915637
 20
-646.4294275092
 10
557.4043764503
 20
-642.7848977636
 10
551.6080114842
 20
-638.8611903339
 10
545.8385301991
 20
-634.6655710229
 10
540.1066163461
 20
-630.2058091518
 10
534.4228841101
 20
-625.4901631729
 10
528.7978584548
 20
-620.527365377
 10
523.2419556329
 20
-615.3266057231
 10
517.7654638973
 20
-609.8975148209
 10
512.3785244501
 20
-604.2501460969
 10
507.091112663
 20
-598.394957178
 10
501.9130196054
 20
-592.3427905261
 10
496.8538339138
 20
-586.1048533607
 10
491.9229240352
 20
-579.6926969054
 10
487.1294208798
 20
-573.1181949977
 10
482.4822009118
 20
-566.3935221019
 10
477.9898697128
 20
-559.531130764
 10
473.6607460462
 20
-552.5437285531
 10
469.5028464522
 20
-545.4442545294
 10
465.5238704038
 20
-538.2458552846
 10
461.7311860486
 20
-530.961860597
 10
458.1318165651
 20
-523.6057587479
 10
454.7324271568
 20
-516.1911715445
 10
451.5393127104
 20
-508.7318290955
 10
448.5583861389
 20
-501.2415443858
 10
445.7951674319
 20
-493.7341876986
 10
443.2547734344
 20
-486.2236609301
 10
440.9419083713
 20
-478.723871847
 10
438.8608551363
 20
-471.2487083321
 10
437.0154673608
 20
-463.8120126676
 10
435.4091622783
 20
-456.4275559017
 10
434.044914396
 20
-449.1090123485
 10
432.9252499868
 20
-441.8699342658
 10
432.0522424115
 20
-434.7237267599
 10
431.4275082793
 20
-427.6836229619
 10
431.0522044537
 20
-420.7626595235
 10
430.9270259113
 20
-413.9736524755
  0
SPLINE
  5
101
330
1F
100
AcDbEntity
  8
0
  6
Continuous
 62
     7
370
    25
100
AcDbSpline
210
0.0
220
0.0
230
1.0
 70
     8
 71
     3
 72
    12
 73
     8
 74
     0
 42
0.00000001
 43
0.00000001
 40
0.0
 40
0.0
 40
0.0
 40
0.0
 40
0.2454631161660845
 40
0.4909276906174783
 40
0.7363587550923835
 40
0.9818079890949019
 40
1.0
 40
1.0
 40
1.0
 40
1.0
 10
573.2459049887877
 20
-334.9146413455059
 30
0.0
 10
572.4902294629813
 20
-334.7771727492284
 30
0.0
 10
570.9788739219346
 20
-334.5022347399787
 30
0.0
 10
569.1415399998858
 20
-333.5789843787965
 30
0.0
 10
567.9937196367132
 20
-332.4068586096358
 30
0.0
 10
567.5001568568348
 20
-331.4721450068822
 30
0.0
 10
567.6293406183145
 20
-330.9948257576704
 30
0.0
 10
567.6382546727085
 20
-330.96188934444
 30
0.0
  0
SPLINE
  5
102
330
1F
100
AcDbEntity
  8
0
  6
Continuous
 62
     7
370
    25
100
AcDbSpline
210
0.0
220
0.0
230
1.0
 70
     8
 71
     3
 72
    13
 73
     9
 74
     0
 42
0.00000001
 43
0.00000001
 40
0.0
 40
0.0
 40
0.0
 40
0.0
 40
0.1164441944874236
 40
0.3073936905258624
 40
0.4983051096433899
 40
0.6890658333105276
 40
0.8797666618782496
 40
0.9999999999999999
 40
0.9999999999999999
 40
0.9999999999999999
 40
0.9999999999999999
 10
581.5167407666471
 20
-330.8368717416496
 30
0.0
 10
581.5251869479331
 20
-331.125797305724
 30
0.0
 10
581.5474834896179
 20
-331.8885136937675
 30
0.0
 10
580.697539757554
 20
-333.0547200641806
 30
0.0
 10
579.1587387199095
 20
-334.1381656126544
 30
0.0
 10
577.077248555965
 20
-334.8319310152801
 30
0.0
 10
575.0066363939324
 20
-335.0626935922366
 30
0.0
 10
573.7368942493746
 20
-334.955926497198
 30
0.0
 10
573.2459049887877
 20
-334.9146413455059
 30
0.0
  0
LWPOLYLINE
  5
103
330
1F
100
AcDbEntity
  8
0
  6
Continuous
 62
     7
370
    25
100
AcDbPolyline
 90
      134
 70
   128
 43
0.0
 10
454.2615496904
 20
-427.4443863206
 10
454.3863561798
 20
-421.4161376231
 10
454.7604971558
 20
-415.545438811
 10
455.3831377635
 20
-409.8453897089
 10
456.2528886484
 20
-404.3287093552
 10
457.3678090561
 20
-399.007707621
 10
458.7254111633
 20
-393.8942577417
 10
460.3226656287
 20
-388.9997698235
 10
462.1560083531
 20
-384.3351653829
 10
464.221348432
 20
-379.9108529762
 10
466.5140772841
 20
-375.7367049744
 10
469.0290789349
 20
-371.8220355341
 10
471.7607414321
 20
-368.1755798133
 10
474.7029693687
 20
-364.8054744806
 10
477.8491974836
 20
-361.7192395589
 10
481.1924053116
 20
-358.923761645
 10
484.7251328489
 20
-356.4252785433
 10
488.4394971989
 20
-354.2293653465
 10
492.3272101623
 20
-352.3409219957
 10
496.3795967314
 20
-350.7641623462
 10
500.5876144471
 20
-349.5026047656
 10
504.9418735764
 20
-348.559064282
 10
509.4326580647
 20
-347.9356463032
 10
514.0499472158
 20
-347.6337419185
 10
518.783438052
 20
-347.6540247946
 10
523.6225683045
 20
-347.9964496725
 10
528.5565399814
 20
-348.6602524684
 10
533.5743434626
 20
-349.6439519787
 10
538.6647820665
 20
-350.9453531852
 10
543.816497034
 20
-352.5615521528
 10
549.0179928747
 20
-354.4889425097
 10
554.2576630174
 20
-356.7232234944
 10
559.5238157092
 20
-359.2594095523
 10
564.8047001043
 20
-362.0918414606
 10
570.0885324846
 20
-365.2141989563
 10
575.363522554
 20
-368.6195148387
 10
580.6178997469
 20
-372.3001905167
 10
585.8399394934
 20
-376.2480129635
 10
591.0179893808
 20
-380.4541730436
 10
596.140495155
 20
-384.9092851692
 10
601.1960265026
 20
-389.603408243
 10
606.1733025565
 20
-394.5260678409
 10
611.0612170674
 20
-399.6662795846
 10
615.8488631869
 20
-405.0125736516
 10
620.5255578043
 20
-410.5530203695
 10
625.0808653853
 20
-416.275256835
 10
629.5046212574
 20
-422.1665145012
 10
633.7869542915
 20
-428.2136476686
 10
637.9183089281
 20
-434.4031628185
 10
641.8894664995
 20
-440.7212487224
 10
645.6915658004
 20
-447.15380726
 10
649.3161228606
 20
-453.6864848781
 10
652.755049876
 20
-460.3047046184
 10
656.0006732556
 20
-466.9936986449
 10
659.0457507446
 20
-473.7385411962
 10
661.8834875845
 20
-480.5241818913
 10
664.5075516747
 20
-487.3354793125
 10
666.9120877022
 20
-494.1572347918
 10
669.0917302069
 20
-500.9742263253
 10
671.041615554
 20
-507.7712425392
 10
672.7573927869
 20
-514.5331166327
 10
674.2352333357
 20
-521.2447602205
 10
675.4718395603
 20
-527.8911970015
 10
676.4644521085
 20
-534.4575961762
 10
677.2108560738
 20
-540.9293055405
 10
677.7093859369
 20
-547.2918841802
 10
677.9589292829
 20
-553.5311346945
 10
677.9589292829
 20
-559.6331348757
 10
677.7093859369
 20
-565.5842687754
 10
677.2108560738
 20
-571.3712570869
 10
676.4644521085
 20
-576.9811867764
 10
675.4718395603
 20
-582.4015398972
 10
674.2352333357
 20
-587.6202215219
 10
672.7573927869
 20
-592.6255867313
 10
671.041615554
 20
-597.4064665983
 10
669.0917302069
 20
-601.9521931105
 10
666.9120877022
 20
-606.2526229746
 10
664.5075516747
 20
-610.29816025
 10
661.8834875845
 20
-614.0797777612
 10
659.0457507446
 20
-617.5890372407
 10
656.0006732556
 20
-620.8181081585
 10
652.755049876
 20
-623.7597851947
 10
649.3161228606
 20
-626.4075043176
 10
645.6915658004
 20
-628.7553574305
 10
641.8894664995
 20
-630.798105555
 10
637.9183089281
 20
-632.5311905214
 10
633.7869542915
 20
-633.9507451394
 10
629.5046212574
 20
-635.0536018275
 10
625.0808653853
 20
-635.8372996812
 10
620.5255578043
 20
-636.3000899642
 10
615.8488631869
 20
-636.4409400104
 10
611.0612170674
 20
-636.2595355283
 10
606.1733025565
 20
-635.7562813022
 10
601.1960265026
 20
-634.9323002891
 10
596.140495155
 20
-633.7894311127
 10
591.0179893808
 20
-632.3302239612
 10
585.8399394934
 20
-630.5579348962
 10
580.6178997469
 20
-628.4765185877
 10
575.363522554
 20
-626.0906194894
 10
570.0885324846
 20
-623.405561475
 10
564.8047001043
 20
-620.4273359589
 10
559.5238157092
 20
-617.1625885268
 10
554.2576630174
 20
-613.6186041068
 10
549.0179928747
 20
-609.803290714
 10
543.816497034
 20
-605.7251618043
 10
538.6647820665
 20
-601.393317278
 10
533.5743434626
 20
-596.8174231742
 10
528.5565399814
 20
-592.0076901018
 10
523.6225683045
 20
-586.974850456
 10
518.783438052
 20
-581.73013447
 10
514.0499472158
 20
-576.2852451561
 10
509.4326580647
 20
-570.6523321913
 10
504.9418735764
 20
-564.843964807
 10
500.5876144471
 20
-558.8731037422
 10
496.3795967314
 20
-552.7530723225
 10
492.3272101623
 20
-546.4975267312
 10
488.4394971989
 20
-540.1204255365
 10
484.7251328489
 20
-533.6359985448
 10
481.1924053116
 20
-527.0587150483
 10
477.8491974836
 20
-520.4032515382
 10
474.7029693687
 20
-513.6844589562
 10
471.7607414321
 20
-506.9173295557
 10
469.0290789349
 20
-500.1169634485
 10
466.5140772841
 20
-493.2985349104
 10
464.221348432
 20
-486.4772585218
 10
462.1560083531
 20
-479.6683552174
 10
460.3226656287
 20
-472.887018323
 10
458.7254111633
 20
-466.1483796529
 10
457.3678090561
 20
-459.467475745
 10
456.2528886484
 20
-452.8592143081
 10
455.3831377635
 20
-446.3383409576
 10
454.7604971558
 20
-439.9194063117
 10
454.3863561798
 20
-433.6167335235
 10
454.2615496904
 20
-427.4443863206
  0
LWPOLYLINE
  5
104
330
1F
100
AcDbEntity
  8
0
  6
Continuous
 62
     7
370
    25
100
AcDbPolyline
 90
       74
 70
   128
 43
0.0
 10
658.347717035
 20
-218.0264042904
 10
660.3369362794
 20
-216.9770086885
 10
664.6660599461
 20
-214.9879062713
 10
669.158391145
 20
-213.312250133
 10
673.805611113
 20
-211.9531432029
 10
678.5991142685
 20
-210.9131022342
 10
683.530024147
 20
-210.1940531435
 10
688.5892098387
 20
-209.797327444
 10
693.7673028962
 20
-209.7236597804
 10
699.0547146833
 20
-209.9731865684
 10
704.4416541305
 20
-210.5454457417
 10
709.9181458661
 20
-211.439377608
 10
715.474048688
 20
-212.6533268114
 10
721.0990743433
 20
-214.1850453974
 10
726.7828065793
 20
-216.0316969757
 10
732.5147204323
 20
-218.1898619728
 10
738.2842017175
 20
-220.6555439639
 10
744.0805666836
 20
-223.4241770735
 10
749.893081797
 20
-226.4906344305
 10
755.7109836178
 20
-229.8492376618
 10
761.5234987313
 20
-233.4937674074
 10
767.3198636973
 20
-237.4174748371
 10
773.0893449825
 20
-241.6130941481
 10
778.8212588355
 20
-246.0728560192
 10
784.5049910715
 20
-250.7885019981
 10
790.1300167268
 20
-255.751299794
 10
795.6859195487
 20
-260.9520594479
 10
801.1624112843
 20
-266.3811503501
 10
806.5493507315
 20
-272.0285190741
 10
811.8367625186
 20
-277.883707993
 10
817.0148555761
 20
-283.9358746449
 10
822.0740412678
 20
-290.1738118103
 10
827.0049511464
 20
-296.5859682656
 10
831.7984543018
 20
-303.1604701732
 10
836.4456742698
 20
-309.8851430691
 10
840.9380054687
 20
-316.747534407
 10
845.2671291354
 20
-323.7349366179
 10
849.4250287294
 20
-330.8344106416
 10
853.4040047778
 20
-338.0328098864
 10
857.1966891329
 20
-345.316804574
 10
860.7960586165
 20
-352.6729064231
 10
864.1954480248
 20
-360.0874936265
 10
867.3885624711
 20
-367.5468360755
 10
870.3694890427
 20
-375.0371207851
 10
873.1327077497
 20
-382.5444774724
 10
875.6731017472
 20
-390.0550042409
 10
877.9859668103
 20
-397.554793324
 10
880.0670200453
 20
-405.0299568388
 10
881.9124078207
 20
-412.4666525034
 10
883.5187129032
 20
-419.8511092693
 10
884.8829607856
 20
-427.1696528225
 10
886.0026251948
 20
-434.4087309052
 10
886.87563277
 20
-441.5549384111
 10
887.5003669023
 20
-448.5950422091
 10
887.8756707278
 20
-455.5160056475
 10
888.0008492703
 20
-462.3050126954
 10
887.8756707278
 20
-468.9494916746
 10
887.5003669023
 20
-475.4371385396
 10
886.87563277
 20
-481.7559396618
 10
886.0026251948
 20
-487.8941940762
 10
884.8829607856
 20
-493.8405351486
 10
883.5187129032
 20
-499.5839516244
 10
881.9124078207
 20
-505.1138080183
 10
880.0670200453
 20
-510.4198643093
 10
877.9859668103
 20
-515.4922949026
 10
875.6731017472
 20
-520.3217068245
 10
873.1327077497
 20
-524.8991571158
 10
870.3694890427
 20
-529.2161693923
 10
867.3885624711
 20
-533.2647495411
 10
864.1954480248
 20
-537.0374005238
 10
860.7960586165
 20
-540.5271362592
 10
857.1966891329
 20
-543.7274945601
 10
853.4040047778
 20
-546.6325490996
 10
849.5187127473
 20
-549.1803572687
  0
SPLINE
  5
105
330
1F
100
AcDbEntity
  8
0
  6
Continuous
 62
     7
370
    25
100
AcDbSpline
210
0.0
220
0.0
230
1.0
 70
     8
 71
     3
 72
    12
 73
     8
 74
     0
 42
0.00000001
 43
0.00000001
 40
0.0
 40
0.0
 40
0.0
 40
0.0
 40
0.2446919416804994
 40
0.4893912531651324
 40
0.7339363169532348
 40
0.9785514449154288
 40
1.0
 40
1.0
 40
1.0
 40
1.0
 10
742.9751917305763
 20
-236.8057136379191
 30
0.0
 10
742.2192401918201
 20
-236.660672731609
 30
0.0
 10
740.7073143460269
 20
-236.3705865505447
 30
0.0
 10
738.865578242629
 20
-235.4473659424548
 30
0.0
 10
737.7088993199064
 20
-234.294036584952
 30
0.0
 10
737.2097418139385
 20
-233.3756072816286
 30
0.0
 10
737.33800592011
 20
-232.9094522124837
 30
0.0
 10
737.3483458496903
 20
-232.8718734171966
 30
0.0
  0
SPLINE
  5
106
330
1F
100
AcDbEntity
  8
0
  6
Continuous
 62
     7
370
    25
100
AcDbSpline
210
0.0
220
0.0
230
1.0
 70
     8
 71
     3
 72
    13
 73
     9
 74
     0
 42
0.00000001
 43
0.00000001
 40
0.0
 40
0.0
 40
0.0
 40
0.0
 40
0.1145953243466568
 40
0.3057605461799508
 40
0.4968501064682026
 40
0.6879275426257363
 40
0.8791299425486748
 40
1.0
 40
1.0
 40
1.0
 40
1.0
 10
751.22135037858
 20
-232.9882436210049
 30
0.0
 10
751.231124975124
 20
-233.264043836586
 30
0.0
 10
751.2572053234718
 20
-233.999927477855
 30
0.0
 10
750.416256996539
 20
-235.1144893148969
 30
0.0
 10
748.8858674266494
 20
-236.1425992453784
 30
0.0
 10
746.8100686341062
 20
-236.7843118570189
 30
0.0
 10
744.7401154210178
 20
-236.9770030805147
 30
0.0
 10
743.4679278804248
 20
-236.8535346858835
 30
0.0
 10
742.9751917305763
 20
-236.8057136379191
 30
0.0
  0
LWPOLYLINE
  5
107
330
1F
100
AcDbEntity
  8
0
  6
Continuous
 62
     7
370
    25
100
AcDbPolyline
 90
       29
 70
   128
 43
0.0
 10
579.5608713167
 20
-325.4492029917
 10
580.538193243
 20
-326.1566823216
 10
581.2183071606
 20
-326.9719690749
 10
581.5671093177
 20
-327.8541813694
 10
581.5671093177
 20
-328.7590813968
 10
581.2183071606
 20
-329.6412936913
 10
580.538193243
 20
-330.4565804445
 10
579.5608713167
 20
-331.1640597745
 10
578.335348384
 20
-331.7282557133
 10
576.9230772821
 20
-332.1208771207
 10
575.3948751811
 20
-332.3222363199
 10
573.8273725157
 20
-332.3222363199
 10
572.2991704147
 20
-332.1208771207
 10
570.8868993128
 20
-331.7282557133
 10
569.6613763801
 20
-331.1640597745
 10
568.6840544538
 20
-330.4565804445
 10
568.0039405362
 20
-329.6412936913
 10
567.6551383791
 20
-328.7590813968
 10
567.6551383791
 20
-327.8541813694
 10
568.0039405362
 20
-326.9719690749
 10
568.6840544538
 20
-326.1566823216
 10
569.6613763801
 20
-325.4492029917
 10
570.8868993128
 20
-324.8850070529
 10
572.2991704147
 20
-324.4923856455
 10
573.8273725157
 20
-324.2910264462
 10
575.3948751811
 20
-324.2910264462
 10
576.9230772821
 20
-324.4923856455
 10
578.335348384
 20
-324.8850070529
 10
579.5608713167
 20
-325.4492029917
  0
LWPOLYLINE
  5
108
330
1F
100
AcDbEntity
  8
0
  6
Continuous
 62
     7
370
    25
100
AcDbPolyline
 90
       24
 70
   128
 43
0.0
 10
578.1466577543
 20
-326.2656111035
 10
578.9694261986
 20
-326.8919583534
 10
579.4689592954
 20
-327.6232254301
 10
579.6082089602
 20
-328.4051776
 10
579.3768476825
 20
-329.1798210478
 10
578.7920344697
 20
-329.8897040128
 10
577.8971422425
 20
-330.4821777229
 10
576.7585410635
 20
-330.9133011134
 10
575.4606757735
 20
-331.1510997348
 10
574.0998031037
 20
-331.177937151
 10
572.7768527543
 20
-330.9918229539
 10
571.5899419008
 20
-330.6065603818
 10
570.6270982913
 20
-330.0507225974
 10
569.9597316317
 20
-329.3655335463
 10
569.6373374541
 20
-328.6018105659
 10
569.6838262598
 20
-327.8161954959
 10
570.0957501868
 20
-327.066953812
 10
570.8425587218
 20
-326.4096533425
 10
571.8688644922
 20
-325.8930430561
 10
573.098551094
 20
-325.5554375745
 10
574.4404182975
 20
-325.4218755518
 10
575.7949459507
 20
-325.5022626722
 10
577.0616749343
 20
-325.7906369908
 10
578.1466577543
 20
-326.2656111035
  0
SPLINE
  5
109
330
1F
100
AcDbEntity
  8
0
  6
Continuous
 62
     7
370
    25
100
AcDbSpline
210
0.0
220
0.0
230
1.0
 70
     8
 71
     3
 72
    14
 73
    10
 74
     0
 42
0.00000001
 43
0.00000001
 40
0.0
 40
0.0
 40
0.0
 40
0.0
 40
0.1373974196402773
 40
0.2900884604492867
 40
0.4428340153024118
 40
0.5956414716568339
 40
0.7484282052835132
 40
0.9011108781092796
 40
1.0
 40
1.0
 40
1.0
 40
1.0
 10
570.2151031254557
 20
-329.567708329726
 30
0.0
 10
570.482817594422
 20
-329.3148038031514
 30
0.0
 10
571.0480456630844
 20
-328.7808441047322
 30
0.0
 10
572.4369950479281
 20
-328.2172433863103
 30
0.0
 10
574.0732210812499
 20
-327.913494554481
 30
0.0
 10
575.7878304830473
 20
-327.9432641945488
 30
0.0
 10
577.3465319872016
 20
-328.3130330193447
 30
0.0
 10
578.5166115257692
 20
-328.8803593304489
 30
0.0
 10
578.9109770926451
 20
-329.3755930854245
 30
0.0
 10
579.0659963175
 20
-329.5702620912062
 30
0.0
  0
LWPOLYLINE
  5
10A
330
1F
100
AcDbEntity
  8
0
  6
Continuous
 62
     7
370
    25
100
AcDbPolyline
 90
       29
 70
   128
 43
0.0
 10
739.3670038649
 20
-233.1950863557
 10
738.3896819386
 20
-232.4876070258
 10
737.709568021
 20
-231.6723202725
 10
737.3607658639
 20
-230.7901079781
 10
737.3607658639
 20
-229.8852079506
 10
737.709568021
 20
-229.0029956562
 10
738.3896819386
 20
-228.1877089029
 10
739.3670038649
 20
-227.480229573
 10
740.5925267976
 20
-226.9160336342
 10
742.0047978995
 20
-226.5234122267
 10
743.5330000004
 20
-226.3220530275
 10
745.1005026659
 20
-226.3220530275
 10
746.6287047669
 20
-226.5234122267
 10
748.0409758688
 20
-226.9160336342
 10
749.2664988015
 20
-227.480229573
 10
750.2438207278
 20
-228.1877089029
 10
750.9239346453
 20
-229.0029956562
 10
751.2727368024
 20
-229.8852079506
 10
751.2727368024
 20
-230.7901079781
 10
750.9239346453
 20
-231.6723202725
 10
750.2438207278
 20
-232.4876070258
 10
749.2664988015
 20
-233.1950863557
 10
748.0409758688
 20
-233.7592822945
 10
746.6287047669
 20
-234.151903702
 10
745.1005026659
 20
-234.3532629012
 10
743.5330000004
 20
-234.3532629012
 10
742.0047978995
 20
-234.151903702
 10
740.5925267976
 20
-233.7592822945
 10
739.3670038649
 20
-233.1950863557
  0
LWPOLYLINE
  5
10B
330
1F
100
AcDbEntity
  8
0
  6
Continuous
 62
     7
370
    25
100
AcDbPolyline
 90
       24
 70
   128
 43
0.0
 10
740.7812174272
 20
-232.3786782439
 10
739.958448983
 20
-231.7523309941
 10
739.4589158862
 20
-231.0210639173
 10
739.3196662213
 20
-230.2391117474
 10
739.5510274991
 20
-229.4644682996
 10
740.1358407119
 20
-228.7545853346
 10
741.0307329391
 20
-228.1621116246
 10
742.169334118
 20
-227.730988234
 10
743.467199408
 20
-227.4931896127
 10
744.8280720779
 20
-227.4663521964
 10
746.1510224272
 20
-227.6524663936
 10
747.3379332808
 20
-228.0377289656
 10
748.3007768902
 20
-228.59356675
 10
748.9681435499
 20
-229.2787558011
 10
749.2905377275
 20
-230.0424787815
 10
749.2440489218
 20
-230.8280938515
 10
748.8321249948
 20
-231.5773355354
 10
748.0853164598
 20
-232.2346360049
 10
747.0590106894
 20
-232.7512462913
 10
745.8293240876
 20
-233.088851773
 10
744.4874568841
 20
-233.2224137957
 10
743.1329292308
 20
-233.1420266752
 10
741.8662002473
 20
-232.8536523567
 10
740.7812174272
 20
-232.3786782439
  0
SPLINE
  5
10C
330
1F
100
AcDbEntity
  8
0
  6
Continuous
 62
     7
370
    25
100
AcDbSpline
210
0.0
220
0.0
230
1.0
 70
     8
 71
     3
 72
    14
 73
    10
 74
     0
 42
0.00000001
 43
0.00000001
 40
0.0
 40
0.0
 40
0.0
 40
0.0
 40
0.1411198614278919
 40
0.2938755815471903
 40
0.4465751825336007
 40
0.5992766132845228
 40
0.7520044671878495
 40
0.9047376360753273
 40
1.0
 40
1.0
 40
1.0
 40
1.0
 10
739.8833457129302
 20
-231.5962094034275
 30
0.0
 10
740.1551510235412
 20
-231.3479058743416
 30
0.0
 10
740.7211730059553
 20
-230.8308252644829
 30
0.0
 10
742.1148187617556
 20
-230.2976858094733
 30
0.0
 10
743.7487645769731
 20
-230.0253247035669
 30
0.0
 10
745.4636087991763
 20
-230.0770367608553
 30
0.0
 10
747.0254067064867
 20
-230.4568129628576
 30
0.0
 10
748.1931307078667
 20
-231.0169780318568
 30
0.0
 10
748.587736163141
 20
-231.4958111299741
 30
0.0
 10
748.7393157019366
 20
-231.6797449788413
 30
0.0
  0
LWPOLYLINE
  5
10D
330
1F
100
AcDbEntity
  8
0
  6
Continuous
 62
     1
370
    25
100
AcDbPolyline
 90
       75
 70
   128
 43
0.0
 10
554.5328478421
 20
-276.7873293301
 10
557.1263231693
 20
-275.3688514142
 10
561.4262661852
 20
-273.3416967136
 10
565.8891456087
 20
-271.6248927656
 10
570.5068092536
 20
-270.2215755959
 10
575.2708221946
 20
-269.1343085953
 10
580.172482175
 20
-268.3650778365
 10
585.2028355034
 20
-267.9152884465
 10
590.3526934087
 20
-267.78576204
 10
595.6126488246
 20
-267.9767352182
 10
600.973093574
 20
-268.4878591372
 10
606.4242359191
 20
-269.3182001447
 10
611.956118448
 20
-270.4662414857
 10
617.5586362637
 20
-271.929886073
 10
623.2215554421
 20
-273.7064603182
 10
628.9345317258
 20
-275.7927190148
 10
634.6871294202
 20
-278.1848512669
 10
640.4688404555
 20
-280.8784874497
 10
646.2691035814
 20
-283.8687071919
 10
652.0773236595
 20
-287.1500483633
 10
657.8828910163
 20
-290.7165170521
 10
663.6752008242
 20
-294.5615985143
 10
669.4436724727
 20
-298.6782690736
 10
675.1777688956
 20
-303.0590089512
 10
680.8670158187
 20
-307.6958160022
 10
686.5010208927
 20
-312.5802203326
 10
692.0694926769
 20
-317.7032997713
 10
697.5622594379
 20
-323.0556961674
 10
702.9692877298
 20
-328.627632485
 10
708.2807007226
 20
-334.408930662
 10
713.4867962431
 20
-340.3890302024
 10
718.578064498
 20
-346.5570074668
 10
723.5452054448
 20
-352.9015956259
 10
728.3791457804
 20
-359.4112052415
 10
733.0710555141
 20
-366.0739454365
 10
737.6123640981
 20
-372.8776456155
 10
741.9947760819
 20
-379.8098776964
 10
746.2102862665
 20
-386.8579788123
 10
750.2511943261
 20
-394.0090744424
 10
754.1101188747
 20
-401.2501019294
 10
757.7800109493
 20
-408.5678343407
 10
761.254166886
 20
-415.9489046293
 10
764.5262405649
 20
-423.3798300513
 10
767.5902550033
 20
-430.8470367941
 10
770.4406132725
 20
-438.3368847712
 10
773.0721087225
 20
-445.8356925382
 10
775.4799344921
 20
-453.3297622842
 10
777.65969229
 20
-460.8054048531
 10
779.6074004284
 20
-468.2489647489
 10
781.3195010968
 20
-475.64684508
 10
782.7928668605
 20
-482.9855323963
 10
784.0248063736
 20
-490.2516213732
 10
785.0130692951
 20
-497.4318392991
 10
785.7558503996
 20
-504.51307032
 10
786.2517928746
 20
-511.4823793978
 10
786.4999907994
 20
-518.3270359385
 10
786.4999907994
 20
-525.0345370464
 10
786.2517928746
 20
-531.5926303628
 10
785.7558503996
 20
-537.9893364472
 10
785.0130692951
 20
-544.2129706593
 10
784.0248063736
 20
-550.2521645034
 10
782.7928668605
 20
-556.0958863944
 10
781.3195010968
 20
-561.7334618091
 10
779.6074004284
 20
-567.1545927848
 10
777.65969229
 20
-572.3493767306
 10
775.4799344921
 20
-577.3083245153
 10
773.0721087225
 20
-582.022377802
 10
770.4406132725
 20
-586.4829255937
 10
767.5902550033
 20
-590.681819963
 10
764.5262405649
 20
-594.611390936
 10
761.254166886
 20
-598.2644605022
 10
757.7800109493
 20
-601.6343557267
 10
754.1101188747
 20
-604.7149209392
 10
750.2511943261
 20
-607.5005289786
 10
746.7166403766
 20
-609.6968513989
  0
LWPOLYLINE
  5
10E
330
1F
100
AcDbEntity
  8
0
  6
Continuous
 62
     1
370
    25
100
AcDbPolyline
 90
       75
 70
   128
 43
0.0
 10
572.2105821493
 20
-266.582190537
 10
574.803992699
 20
-265.1637500164
 10
579.1039357148
 20
-263.1365953158
 10
583.5668151384
 20
-261.4197913678
 10
588.1844787833
 20
-260.0164741981
 10
592.9484917242
 20
-258.9292071975
 10
597.8501517047
 20
-258.1599764387
 10
602.8805050331
 20
-257.7101870487
 10
608.0303629383
 20
-257.5806606422
 10
613.2903183543
 20
-257.7716338204
 10
618.6507631036
 20
-258.2827577394
 10
624.1019054487
 20
-259.1130987469
 10
629.6337879777
 20
-260.2611400879
 10
635.2363057934
 20
-261.7247846752
 10
640.8992249717
 20
-263.5013589204
 10
646.6122012555
 20
-265.5876176171
 10
652.3647989499
 20
-267.9797498691
 10
658.1465099852
 20
-270.6733860519
 10
663.9467731111
 20
-273.6636057941
 10
669.7549931891
 20
-276.9449469655
 10
675.5605605459
 20
-280.5114156543
 10
681.3528703539
 20
-284.3564971166
 10
687.1213420024
 20
-288.4731676758
 10
692.8554384253
 20
-292.8539075534
 10
698.5446853483
 20
-297.4907146044
 10
704.1786904224
 20
-302.3751189349
 10
709.7471622066
 20
-307.4981983735
 10
715.2399289675
 20
-312.8505947697
 10
720.6469572595
 20
-318.4225310872
 10
725.9583702523
 20
-324.2038292642
 10
731.1644657728
 20
-330.1839288046
 10
736.2557340276
 20
-336.351906069
 10
741.2228749745
 20
-342.6964942281
 10
746.05681531
 20
-349.2061038437
 10
750.7487250438
 20
-355.8688440387
 10
755.2900336277
 20
-362.6725442177
 10
759.6724456116
 20
-369.6047762986
 10
763.8879557962
 20
-376.6528774145
 10
767.9288638557
 20
-383.8039730446
 10
771.7877884044
 20
-391.0450005316
 10
775.457680479
 20
-398.3627329429
 10
778.9318364156
 20
-405.7438032315
 10
782.2039100946
 20
-413.1747286535
 10
785.2679245329
 20
-420.6419353963
 10
788.1182828022
 20
-428.1317833734
 10
790.7497782521
 20
-435.6305911404
 10
793.1576040218
 20
-443.1246608864
 10
795.3373618196
 20
-450.6003034553
 10
797.2850699581
 20
-458.0438633511
 10
798.9971706265
 20
-465.4417436823
 10
800.4705363902
 20
-472.7804309985
 10
801.7024759033
 20
-480.0465199754
 10
802.6907388248
 20
-487.2267379013
 10
803.4335199293
 20
-494.3079689222
 10
803.9294624043
 20
-501.277278
 10
804.1776603291
 20
-508.1219345407
 10
804.1776603291
 20
-514.8294356486
 10
803.9294624043
 20
-521.3875289651
 10
803.4335199293
 20
-527.7842350494
 10
802.6907388248
 20
-534.0078692616
 10
801.7024759033
 20
-540.0470631056
 10
800.4705363902
 20
-545.8907849966
 10
798.9971706265
 20
-551.5283604113
 10
797.2850699581
 20
-556.9494913871
 10
795.3373618196
 20
-562.1442753328
 10
793.1576040218
 20
-567.1032231176
 10
790.7497782521
 20
-571.8172764042
 10
788.1182828022
 20
-576.2778241959
 10
785.2679245329
 20
-580.4767185653
 10
782.2039100946
 20
-584.4062895382
 10
778.9318364156
 20
-588.0593591044
 10
775.457680479
 20
-591.4292543289
 10
771.7877884044
 20
-594.5098195414
 10
767.9288638557
 20
-597.2954275809
 10
764.3949625619
 20
-599.4913732362
  0
ENDSEC
  0
SECTION
  2
OBJECTS
  0
DICTIONARY
  5
C
330
0
100
AcDbDictionary
281
     1
  3
ACAD_GROUP
350
D
  3
ACAD_LAYOUT
350
1A
  3
ACAD_MLINESTYLE
350
17
  3
ACAD_PLOTSETTINGS
350
19
  3
ACAD_PLOTSTYLENAME
350
E
  3
ACAD_SCALELIST
350
47
  3
DWGPROPS
350
10F
  0
DICTIONARY
  5
D
102
{ACAD_REACTORS
330
C
102
}
330
C
100
AcDbDictionary
281
     1
  0
DICTIONARY
  5
1A
102
{ACAD_REACTORS
330
C
102
}
330
C
100
AcDbDictionary
281
     1
  3
Layout1
350
1E
  3
Layout2
350
26
  3
Model
350
22
  0
DICTIONARY
  5
17
102
{ACAD_REACTORS
330
C
102
}
330
C
100
AcDbDictionary
281
     1
  3
Standard
350
18
  0
DICTIONARY
  5
19
102
{ACAD_REACTORS
330
C
102
}
330
C
100
AcDbDictionary
281
     1
  0
ACDBDICTIONARYWDFLT
  5
E
102
{ACAD_REACTORS
330
C
102
}
330
C
100
AcDbDictionary
281
     1
  3
Normal
350
F
100
AcDbDictionaryWithDefault
340
F
  0
DICTIONARY
  5
47
102
{ACAD_REACTORS
330
C
102
}
330
C
100
AcDbDictionary
281
     1
  3
A0
350
48
  3
A1
350
49
  3
A2
350
4A
  3
A3
350
4B
  3
A4
350
4C
  3
A5
350
4D
  3
A6
350
4E
  3
A7
350
4F
  3
A8
350
50
  3
A9
350
51
  3
B0
350
52
  3
B1
350
53
  3
B2
350
54
  3
B3
350
55
  3
B4
350
56
  3
B5
350
57
  3
B6
350
58
  3
B7
350
59
  3
B8
350
5A
  3
B9
350
5B
  3
C0
350
5C
  3
C1
350
5D
  3
C2
350
5E
  3
C3
350
5F
  3
C4
350
60
  3
C5
350
61
  3
C6
350
62
  3
C7
350
63
  3
C8
350
64
  3
C9
350
65
  3
D0
350
66
  3
D1
350
67
  3
D2
350
68
  0
XRECORD
  5
10F
102
{ACAD_REACTORS
330
C
102
}
330
C
100
AcDbXrecord
280
     1
  1
DWGPROPS COOKIE
  2

  3

  4

  6

  7

  8
b.kav
  9

300
=
301
=
302
=
303
=
304
=
305
=
306
=
307
=
308
=
309
=
 40
0.0
 41
2459935.585430856
 42
2459935.58543103
  1

 90
        0
  0
LAYOUT
  5
1E
102
{ACAD_REACTORS
330
1A
102
}
330
1A
100
AcDbPlotSettings
  1

  2
none_device
  4

  6

 40
0.0
 41
0.0
 42
0.0
 43
0.0
 44
0.0
 45
0.0
 46
0.0
 47
0.0
 48
0.0
 49
0.0
140
0.0
141
0.0
142
1.0
143
1.0
 70
   688
 72
     1
 73
     0
 74
     5
  7

 75
    16
147
1.0
148
0.0
149
0.0
100
AcDbLayout
  1
Layout1
 70
     1
 71
     1
 10
0.0
 20
0.0
 11
420.0
 21
297.0
 12
0.0
 22
0.0
 32
0.0
 14
1.0000000000E+20
 24
1.0000000000E+20
 34
1.0000000000E+20
 15
-1.0000000000E+20
 25
-1.0000000000E+20
 35
-1.0000000000E+20
146
0.0
 13
0.0
 23
0.0
 33
0.0
 16
1.0
 26
0.0
 36
0.0
 17
0.0
 27
1.0
 37
0.0
 76
     0
330
1B
  0
LAYOUT
  5
26
102
{ACAD_REACTORS
330
1A
102
}
330
1A
100
AcDbPlotSettings
  1

  2
none_device
  4

  6

 40
0.0
 41
0.0
 42
0.0
 43
0.0
 44
0.0
 45
0.0
 46
0.0
 47
0.0
 48
0.0
 49
0.0
140
0.0
141
0.0
142
1.0
143
1.0
 70
   688
 72
     1
 73
     0
 74
     5
  7

 75
    16
147
1.0
148
0.0
149
0.0
100
AcDbLayout
  1
Layout2
 70
     1
 71
     2
 10
0.0
 20
0.0
 11
0.0
 21
0.0
 12
0.0
 22
0.0
 32
0.0
 14
0.0
 24
0.0
 34
0.0
 15
0.0
 25
0.0
 35
0.0
146
0.0
 13
0.0
 23
0.0
 33
0.0
 16
1.0
 26
0.0
 36
0.0
 17
0.0
 27
1.0
 37
0.0
 76
     0
330
23
  0
LAYOUT
  5
22
102
{ACAD_REACTORS
330
1A
102
}
330
1A
100
AcDbPlotSettings
  1

  2
none_device
  4
Letter_(8.50_x_11.00_Inches)
  6

 40
6.35
 41
6.35
 42
6.35000508
 43
6.35000508
 44
215.9
 45
279.4
 46
0.0
 47
0.0
 48
0.0
 49
0.0
140
0.0
141
0.0
142
1.0
143
1.0
 70
  1712
 72
     1
 73
     0
 74
     0
  7

 75
     0
147
1.0
148
0.0
149
0.0
100
AcDbLayout
  1
Model
 70
     1
 71
     0
 10
0.0
 20
0.0
 11
279.4
 21
215.9
 12
0.0
 22
0.0
 32
0.0
 14
0.0
 24
0.0
 34
0.0
 15
279.4
 25
215.9
 35
0.0
146
0.0
 13
0.0
 23
0.0
 33
0.0
 16
1.0
 26
0.0
 36
0.0
 17
0.0
 27
1.0
 37
0.0
 76
     0
330
1F
331
29
  0
MLINESTYLE
  5
18
102
{ACAD_REACTORS
330
17
102
}
330
17
100
AcDbMlineStyle
  2
Standard
 70
     0
  3

 62
   256
 51
90.0
 52
90.0
 71
     2
 49
0.5
 62
   256
  6
BYLAYER
 49
-0.5
 62
   256
  6
BYLAYER
  0
ACDBPLACEHOLDER
  5
F
102
{ACAD_REACTORS
330
E
102
}
330
E
  0
SCALE
  5
48
102
{ACAD_REACTORS
330
47
102
}
330
47
100
AcDbScale
 70
     0
300
1:1
140
1.0
141
1.0
290
     1
  0
SCALE
  5
49
102
{ACAD_REACTORS
330
47
102
}
330
47
100
AcDbScale
 70
     0
300
1:2
140
1.0
141
2.0
290
     0
  0
SCALE
  5
4A
102
{ACAD_REACTORS
330
47
102
}
330
47
100
AcDbScale
 70
     0
300
1:4
140
1.0
141
4.0
290
     0
  0
SCALE
  5
4B
102
{ACAD_REACTORS
330
47
102
}
330
47
100
AcDbScale
 70
     0
300
1:5
140
1.0
141
5.0
290
     0
  0
SCALE
  5
4C
102
{ACAD_REACTORS
330
47
102
}
330
47
100
AcDbScale
 70
     0
300
1:8
140
1.0
141
8.0
290
     0
  0
SCALE
  5
4D
102
{ACAD_REACTORS
330
47
102
}
330
47
100
AcDbScale
 70
     0
300
1:10
140
1.0
141
10.0
290
     0
  0
SCALE
  5
4E
102
{ACAD_REACTORS
330
47
102
}
330
47
100
AcDbScale
 70
     0
300
1:16
140
1.0
141
16.0
290
     0
  0
SCALE
  5
4F
102
{ACAD_REACTORS
330
47
102
}
330
47
100
AcDbScale
 70
     0
300
1:20
140
1.0
141
20.0
290
     0
  0
SCALE
  5
50
102
{ACAD_REACTORS
330
47
102
}
330
47
100
AcDbScale
 70
     0
300
1:30
140
1.0
141
30.0
290
     0
  0
SCALE
  5
51
102
{ACAD_REACTORS
330
47
102
}
330
47
100
AcDbScale
 70
     0
300
1:40
140
1.0
141
40.0
290
     0
  0
SCALE
  5
52
102
{ACAD_REACTORS
330
47
102
}
330
47
100
AcDbScale
 70
     0
300
1:50
140
1.0
141
50.0
290
     0
  0
SCALE
  5
53
102
{ACAD_REACTORS
330
47
102
}
330
47
100
AcDbScale
 70
     0
300
1:100
140
1.0
141
100.0
290
     0
  0
SCALE
  5
54
102
{ACAD_REACTORS
330
47
102
}
330
47
100
AcDbScale
 70
     0
300
2:1
140
2.0
141
1.0
290
     0
  0
SCALE
  5
55
102
{ACAD_REACTORS
330
47
102
}
330
47
100
AcDbScale
 70
     0
300
4:1
140
4.0
141
1.0
290
     0
  0
SCALE
  5
56
102
{ACAD_REACTORS
330
47
102
}
330
47
100
AcDbScale
 70
     0
300
8:1
140
8.0
141
1.0
290
     0
  0
SCALE
  5
57
102
{ACAD_REACTORS
330
47
102
}
330
47
100
AcDbScale
 70
     0
300
10:1
140
10.0
141
1.0
290
     0
  0
SCALE
  5
58
102
{ACAD_REACTORS
330
47
102
}
330
47
100
AcDbScale
 70
     0
300
100:1
140
100.0
141
1.0
290
     0
  0
SCALE
  5
59
102
{ACAD_REACTORS
330
47
102
}
330
47
100
AcDbScale
 70
     0
300
1/128" = 1'-0"
140
0.0078125
141
12.0
290
     0
  0
SCALE
  5
5A
102
{ACAD_REACTORS
330
47
102
}
330
47
100
AcDbScale
 70
     0
300
1/64" = 1'-0"
140
0.015625
141
12.0
290
     0
  0
SCALE
  5
5B
102
{ACAD_REACTORS
330
47
102
}
330
47
100
AcDbScale
 70
     0
300
1/32" = 1'-0"
140
0.03125
141
12.0
290
     0
  0
SCALE
  5
5C
102
{ACAD_REACTORS
330
47
102
}
330
47
100
AcDbScale
 70
     0
300
1/16" = 1'-0"
140
0.0625
141
12.0
290
     0
  0
SCALE
  5
5D
102
{ACAD_REACTORS
330
47
102
}
330
47
100
AcDbScale
 70
     0
300
3/32" = 1'-0"
140
0.09375
141
12.0
290
     0
  0
SCALE
  5
5E
102
{ACAD_REACTORS
330
47
102
}
330
47
100
AcDbScale
 70
     0
300
1/8" = 1'-0"
140
0.125
141
12.0
290
     0
  0
SCALE
  5
5F
102
{ACAD_REACTORS
330
47
102
}
330
47
100
AcDbScale
 70
     0
300
3/16" = 1'-0"
140
0.1875
141
12.0
290
     0
  0
SCALE
  5
60
102
{ACAD_REACTORS
330
47
102
}
330
47
100
AcDbScale
 70
     0
300
1/4" = 1'-0"
140
0.25
141
12.0
290
     0
  0
SCALE
  5
61
102
{ACAD_REACTORS
330
47
102
}
330
47
100
AcDbScale
 70
     0
300
3/8" = 1'-0"
140
0.375
141
12.0
290
     0
  0
SCALE
  5
62
102
{ACAD_REACTORS
330
47
102
}
330
47
100
AcDbScale
 70
     0
300
1/2" = 1'-0"
140
0.5
141
12.0
290
     0
  0
SCALE
  5
63
102
{ACAD_REACTORS
330
47
102
}
330
47
100
AcDbScale
 70
     0
300
3/4" = 1'-0"
140
0.75
141
12.0
290
     0
  0
SCALE
  5
64
102
{ACAD_REACTORS
330
47
102
}
330
47
100
AcDbScale
 70
     0
300
1" = 1'-0"
140
1.0
141
12.0
290
     0
  0
SCALE
  5
65
102
{ACAD_REACTORS
330
47
102
}
330
47
100
AcDbScale
 70
     0
300
1-1/2" = 1'-0"
140
1.5
141
12.0
290
     0
  0
SCALE
  5
66
102
{ACAD_REACTORS
330
47
102
}
330
47
100
AcDbScale
 70
     0
300
3" = 1'-0"
140
3.0
141
12.0
290
     0
  0
SCALE
  5
67
102
{ACAD_REACTORS
330
47
102
}
330
47
100
AcDbScale
 70
     0
300
6" = 1'-0"
140
6.0
141
12.0
290
     0
  0
SCALE
  5
68
102
{ACAD_REACTORS
330
47
102
}
330
47
100
AcDbScale
 70
     0
300
1'-0" = 1'-0"
140
12.0
141
12.0
290
     0
  0
ENDSEC
  0
EOF
